Tears Don't Fall, Bullet For My Valentine (tablatura)

Autor: thrasher18 | 15291 visualizaciones

Intro


Guitar 1:

|--------------------------|---------------------------|
|--------------------------|---------------------------|
|--------9-----9--9-----9--|-----9--9-----10-----9-----|
|--7--7-----7--------7-----|--7--------7------7-----7--|
|--------------------------|---------------------------|
|--------------------------|---------------------------|
   .  .     .        .        .        .      .     .
									4x

-----------------------------|--------------------------------|
-----------------------------|--------------------------------|
--9--------------------------|-------------------------9--10--|
--------10--------10-----10--|----------12------9--10---------|
-----8------8--8------8------|--10--10------10----------------|
-----------------------------|--------------------------------|
     .      .  .      .          .   .       .

Guitar 2:

|--------------------------|---------------------------|
|--------------------------|---------------------------|
|--------9--------9-----9--|--------9-----10-----9-----|
|--7--7-----7--7-----7-----|--7--7-----7------7-----7--|
|--------------------------|---------------------------|
|--------------------------|---------------------------|
   .  .     .  .      .       .   .    .      .     .
 									4x

--------------------------|--------------------------|
--------------------------|--------------------5--6--|
--------5-----5--5-----5--|--------7-----4--5--------|
--3--3-----3--------3-----|--5--5-----5--------------|
--------------------------|--------------------------|
--------------------------|--------------------------|
  .  .     .        .        .   .    .

Guitar 3:

After guitar 1 & 2 2x this comes in like...

--------------------------|--------------------------|
--------------------------|--------------------------|
--9--9--9--9--9--9--9--9--|--9--9--9--9--9--9--9--9--|
--7--7--7--7--7--7--7--7--|--7--7--7--7--7--7--7--7--|
--------------------------|--------------------------|
--------------------------|--------------------------|
  .  .  .  .  .  .  .  .     .  .  .  .  .  .  .  .


----------------------------------|------------------------------|
----------------------------------|------------------------------|
--10--10--10--10--10--10--10--10--|--9---9---9---9---7--7--7--7--|
--12--12--12--12--12--12--12--12--|--10--10--10--10--9--9--9--9--|
----------------------------------|------------------------------|
----------------------------------|------------------------------|
  .   .   .   .   .   .   .   .       .   .   .   .  .  .  .  .

Pre-verse or whatever you like to call it

All Guitars:

|------------------------------|
|------------------------------|
|--------------10--10--10--10--|
|--3--3--3--3--x---x---x---x---|
|--3--3--3--3--8---8---8---8---|
|--3--3--3--3------------------|

------------------------------|--------------------------|
------------------------------|--------------------------|
--9--9--9--9--10--10--10--10--|--------------7--7--7--7--|
--x--x--x--x--x---x---x---x---|--5--5--5--5--x--x--x--x--|
--7--7--7--7--8---8---8---8---|--5--5--5--5--5--5--5--5--|
------------------------------|--5--5--5--5--------------|
								2x


--------------------------|------------------------------|
--------------------------|------------------------------|
--5--5--5--5--4--4--4--4--|--------------10--10--10--10--|
--x--x--x--x--x--x--x--x--|--3--3--3--3--x---x---x---x---|
--3--3--3--3--2--2--2--2--|--3--3--3--3--8---8---8---8---|
--------------------------|--3--3--3--3------------------|

Bridge into verse

Bend it more and more...
|-------------------------|
|-------------------------|
|-------------------------|
|--7b-7b-7b-7b-7b-7b-7b---|
|-------------------------|
|-------------------------|

Verse

Goes like intro, but after 2x guitar 3 comes in with:

--------------------------|--------------------------|
--------------------------|--------------------------|
--------------------------|--------------------------|
--------------------------|--------------------------|
--0--0--0--0--0--0--0--0--|--0--0--0--0--0--0--0--0--|
--0--0--0--0--0--0--0--0--|--0--0--0--0--0--0--0--0--|
  .  .  .  .  .  .  .  .     .  .  .  .  .  .  .  .


--------------------------|--------------------------|
--------------------------|--------------------------|
--------------------------|--------------------------|
--------------------------|--------------------------|
--3--3--3--3--3--3--3--3--|--5--5--5--5--5--5--5--5--|
--3--3--3--3--3--3--3--3--|--5--5--5--5--5--5--5--5--|
  .  .  .  .  .  .  .  .     .  .  .  .  .  .  .  .

Pre-Chorus

Guitar 1 & 2:

|-----------------------|
|----------8------------|
|--4----5-------5----4--|
|-----------------------|
|-----------------------|
|-----------------------|

--------------------|-----------------------|--------------------|
--------------------|----------8------------|--------------------|
----5----2----------|--4----5-------5----4--|----5------7--------|
--------------------|-----------------------|--------------------|
--------------------|-----------------------|--------------------|
--------------------|-----------------------|--------------------|

-----------------------|--------------------|
----------8------------|--------------------|
--4----5-------5----4--|----5----2----------|
-----------------------|--------------------|
-----------------------|--------------------|
-----------------------|--------------------|

Guitar 3:

------------------------------|-------------------------------|
------------------------------|-------------------------------|
------------------------------|-------------------------------|
------------------------------|-------------------------------|
--7--7-7-7--7-7-7--7-7-7--7-7-|--7--7-7-7--7-7-7--7-7-7-7-7-7-|
--7--7-7-7--7-7-7--7-7-7--7-7-|--7--7-7-7--7-7-7--7-7-7-7-7-7-|
PM......


------------------------------------------|-------------------------------|
------------------------------------------|-------------------------------|
------------------------------------------|-------------------------------|
------------------------------------------|-------------------------------|
--10--10-10-10--10-10-10--10-10-10--10-10-|--5--5-5-5--5-5-5--5-5-5-5-5-5-|
--10--10-10-10--10-10-10--10-10-10--10-10-|--5--5-5-5--5-5-5--5-5-5-5-5-5-|
PM......


------------------------------|-------------------------------|
------------------------------|-------------------------------|
------------------------------|-------------------------------|
------------------------------|-------------------------------|
--7--7-7-7--7-7-7--7-7-7--7-7-|--7--7-7-7--7-7-7--7-7-7-7-7-7-|
--7--7-7-7--7-7-7--7-7-7--7-7-|--7--7-7-7--7-7-7--7-7-7-7-7-7-|
PM.....


----------------------------------|-------------------|
----------------------------------|-------------------|
----------------------------------|-------------------|
----------------------------------|--5----------------|
--10--10--10--10--10--10--10--10--|--5----------------|
--10--10--10--10--10--10--10--10--|--5----------------|

Chorus

Goes like Pre-verse 2x

Then Verse, Pre-chorus and chorus again.

Then solo part

Guitar 1:

|--------------------------------|--------------------------------|
|--------------------------------|--------------------------------|
|--------------------------------|--------------------------------|
|--------------------------------|--------------------------------|
|--7--7-7-7-7-7-7-7--7-7-7-7-7-7-|--7--7-7-7-7-7-7-7--7-7-7-7-7-7-|
|--7--7-7-7-7-7-7-7--7-7-7-7-7-7-|--7--7-7-7-7-7-7-7--7-7-7-7-7-7-|
PM.....


--------------------------------|--------------------------------|
--------------------------------|--------------------------------|
--------------------------------|--------------------------------|
--------------------------------|--------------------------------|
--7--7-7-7-7-7-7-7--7-7-7-7-7-7-|--7--7-7-7-7-7-7-7--7-7-7-7-7-7-|
--7--7-7-7-7-7-7-7--7-7-7-7-7-7-|--7--7-7-7-7-7-7-7--7-7-7-7-7-7-|
PM.....

Guitar 2:

Comes in after 1x guitar 1

--------------------------------|--------------------------------|
--------------------------------|--------------------------------|
--------------------------------|--------------------------------|
--------------------------------|--------------------------------|
--7--7-7-7-7-7-7-7--7-7-7-7-7-7-|--7--7-7-7-7-7-7-7--7-7-7-7-7-7-|
--7--7-7-7-7-7-7-7--7-7-7-7-7-7-|--7--7-7-7-7-7-7-7--7-7-7-7-7-7-|
PM.....


--------------------------------|
--------------------------------|
--------------------------------|
--------------------------------|
--7--7-7-7-7-7-7-7--7-7-7-7-7-7-|
--7--7-7-7-7-7-7-7--7-7-7-7-7-7-|
PM.....


Then both guitars do:

|-----------------------------|
|-----------------------------|
|-----------------------------|
|--10---7---10---13---12---10-|
|--10---7---10---13---12---10-|
|--10---7---10---13---12---10-|

The riff with the solo

Guitar 1:

-----------------------------|-----------------------|
-----------------------------|-----------------------|
--------------------------9--|----7----------7----7--|
-----------------------------|---------10------------|
--7--7-7-7--7-7-7--7-7-7-----|-----------------------|
--7--7-7-7--7-7-7--7-7-7-----|-----------------------|

--------------------------|----------------------|-------------------------|
--------------------------|----------------------|-------------------------|
----9---------------------|----------------------|----------------------9--|
-------10--------------5--|----3----2----3----2--|----3--2-----------------|
-------------7--7-7-7-----|----------------------|------------7--7-7-7-----|
-------------7--7-7-7-----|----------------------|------------7--7-7-7-----|

										2x

-----------------------|----------------------------|
-----------------------|----------------------------|
----7----------7----7--|----9-----------------------|
---------10------------|-------10-------------------|
-----------------------|-------------7--7-7-7-7-7-7-|
-----------------------|-------------7--7-7-7-7-7-7-|

|-----------------------------|
|-----------------------------|
|-----------------------------|
|--10---7---10---13---12---10-|
|--10---7---10---13---12---10-|
|--10---7---10---13---12---10-|

Guitar 2:

-----------------------------|------------------------------|
-----------------------------|------------------------------|
-----------------------------|------------------------------|
--10---7---10---13---12---10-|--------------------------10--|
--10---7---10---13---12---10-|--7--7-7-7--7-7-7--7-7-7------|
--10---7---10---13---12---10-|--7--7-7-7--7-7-7--7-7-7------|

----------------------|--------------------------|----------------------|
----------------------|--------------------------|----------------------|
----------------------|--------------------------|----------------------|
----9----7----9----9--|----10--7--------------5--|----3----2----3-------|
----------------------|-------------7--7-7-7-----|-------------------3--|
----------------------|-------------7--7-7-7-----|----------------------|

											2x

--------------------------|---------------------|--------------------------|
--------------------------|---------------------|--------------------------|
--------------------------|---------------------|--------------------------|
----------------------10--|---9----7----9----9--|--10--7-------------------|
----5--3----7--7-7-7------|---------------------|-----------7--7-7-7-7-7-7-|
------------7--7-7-7------|---------------------|-----------7--7-7-7-7-7-7-|

-----------------------------|
-----------------------------|
-----------------------------|
--10---7---10---13---12---10-|
--10---7---10---13---12---10-|
--10---7---10---13---12---10-|

Then....

Guitar 1:

|------------------------|-----------------------|
|------------------------|-----------------------|
|------------------------|-----------------------|
|--3----3----3--3--3--7--|------7----7--7--7--0--|
|--3----3----3--3--3--7--|------7----7--7--7--0--|
|--3----3----3--3--3--7--|------7----7--7--7--0--|

------------------------|------------------------|-----------------------|
------------------------|------------------------|-----------------------|
------------------------|------------------------|-----------------------|
----0----------------0--|----0----------------3--|------3----3--3--3--7--|
----0--8--8--7--5----0--|----0--8--8--7--5----3--|------3----3--3--3--7--|
----0----------------0--|----0----------------3--|------3----3--3--3--7--|

-----------------------|------------------------|------------------------|
-----------------------|------------------------|------------------------|
-----------------------|------------------------|------------------------|
------7----7--7--7--0--|----0----------------0--|----0----------------3--|
------7----7--7--7--0--|----0--8--8--7--5----0--|----0--8--8--7--5----3--|
------7----7--7--7--0--|----0----------------0--|----0----------------3--|

-----------------------|-----------------------|-----------------------|
-----------------------|-----------------------|-----------------------|
-----------------------|-----------------------|-----------------------|
------3----3--3--3--2--|------2----2--2--2--3--|------3----3--3--3--5--|
------3----3--3--3--2--|------2----2--2--2--3--|------3----3--3--3--5--|
------3----3--3--3--2--|------2----2--2--2--3--|------3----3--3--3--5--|

-----------------------|-----------------------|----------------------|
-----------------------|-----------------------|----------------------|
-----------------------|-----------------------|----------------------|
------5----5--5--5--3--|------3----3--3--3--6--|------6----6--6--6----|
------5----5--5--5--3--|------3----3--3--3--6--|------6----6--6--6----|
------5----5--5--5--3--|------3----3--3--3--6--|------6----6--6--6----|

Guitar 2:

|------------------------|-----------------------|
|------------------------|-----------------------|
|------------------------|-----------------------|
|--3----3----3--3--3--7--|------7----7--7--7--0--|
|--3----3----3--3--3--7--|------7----7--7--7--0--|
|--3----3----3--3--3--7--|------7----7--7--7--0--|

------------------------|------------------------|-----------------------|
------------------------|------------------------|-----------------------|
------------------------|------------------------|-----------------------|
----0--7--7--5--2----0--|----0--7--7--5--2----3--|------3----3--3--3--7--|
----0----------------0--|----0----------------3--|------3----3--3--3--7--|
----0----------------0--|----0----------------3--|------3----3--3--3--7--|

-----------------------|------------------------|------------------------|
-----------------------|------------------------|------------------------|
-----------------------|------------------------|------------------------|
------7----7--7--7--0--|----0--7--7--5--2----0--|----0--7--7--5--2----3--|
------7----7--7--7--0--|----0----------------0--|----0----------------3--|
------7----7--7--7--0--|----0----------------0--|----0----------------3--|

-----------------------|-----------------------|-----------------------|
-----------------------|-----------------------|-----------------------|
-----------------------|-----------------------|-----------------------|
------3----3--3--3--2--|------2----2--2--2--3--|------3----3--3--3--5--|
------3----3--3--3--2--|------2----2--2--2--3--|------3----3--3--3--5--|
------3----3--3--3--2--|------2----2--2--2--3--|------3----3--3--3--5--|

-----------------------|-----------------------|----------------------|
-----------------------|-----------------------|----------------------|
-----------------------|-----------------------|----------------------|
------5----5--5--5--3--|------3----3--3--3--6--|------6----6--6--6----|
------5----5--5--5--3--|------3----3--3--3--6--|------6----6--6--6----|
------5----5--5--5--3--|------3----3--3--3--6--|------6----6--6--6----|

Then Guitar 1:


--------------------------------|--------------------------------|
--------------------------------|--------------------------------|
--------------------------------|--------------------------------|
--------------------------------|--------------------------------|
--7--7-7-7-7-7-7-7--7-7-7-7-7-7-|--7--7-7-7-7-7-7-7--7-7-7-7-7-7-|
--7--7-7-7-7-7-7-7--7-7-7-7-7-7-|--7--7-7-7-7-7-7-7--7-7-7-7-7-7-|
PM....


--------------------------------|---------------------|
--------------------------------|---------------------|
--------------------------------|---------------------|
--------------------------------|--7----7----7--------|
--7--7-7-7-7-7-7-7--7-7-7-7-7-7-|--7----7----7--------|
--7--7-7-7-7-7-7-7--7-7-7-7-7-7-|--7----7----7--------|
PM....

Guitar 2:

only does

|---------------------|
|---------------------|
|---------------------|
|--7----7----7--------|
|--7----7----7--------|
|--7----7----7--------|

Then Solo whiche i didnt get quite...

Both guitars end the solo with:

-----------------------------|-----------------------------|---------------|
-----------------------------|-----------------------------|---------------|
-----------------------------|-----------------------------|---------------|
--10---7---10---13---12---10-|--10---7---10---13---12---10-|--8------------|
--10---7---10---13---12---10-|--10---7---10---13---12---10-|--8------------|
--10---7---10---13---12---10-|--10---7---10---13---12---10-|--8------------|

Then Verse, Pre-Chorus, And Chorus again

Then Comes this outro part

Guitar 1:

--------------------------|--------------------------|---------------------|
--------------------------|--------------------------|---------------------|
--------------7--7--7--7--|--9--9--9--9--4--4--4--4--|-----------9~--------|
--5--5--5--5--x--x--x--x--|--x--x--x--x--x--x--x--x--|--9----10-------10-9-|
--5--5--5--5--5--5--5--5--|--7--7--7--7--2--2--2--2--|---------------------|
--5--5--5--5--------------|--------------------------|---------------------|

---------------------|-----------------------|--------------------|
---------------------|-----------------------|--------------------|
---------------------|-----------------------|--------------------|
----10----7----------|--5----7--9----7----5--|----7----9----------|
---------------------|-----------------------|--------------------|
---------------------|-----------------------|--------------------|

-------------------------|---------------------|-----------------------|
-------------------------|---------------------|-----------------------|
-----------9~------------|---------------------|-----------------------|
--9----10-------10----9--|----10----7----------|--5----7--9----7----5--|
-------------------------|---------------------|-----------------------|
-------------------------|---------------------|-----------------------|

--------------------|-------------------------|---------------------|
--------------------|-------------------------|---------------------|
--------------------|-----------9~------------|---------------------|
----7----9----------|--9----10-------10----9--|----10----7----------|
--------------------|-------------------------|---------------------|
--------------------|-------------------------|---------------------|

-----------------------|--------------------|-------------------------|
-----------------------|--------------------|-------------------------|
-----------------------|--------------------|-----------9~------------|
--5----7--9----7----5--|----7----9----------|--9----10-------10----9--|
-----------------------|--------------------|-------------------------|
-----------------------|--------------------|-------------------------|

---------------------|--------------------|-------------------|
---------------------|--------------------|-------------------|
---------------------|--------------------|-------------------|
----10----7----------|--5--------7--------|--9----------------|
---------------------|--------------------|-------------------|
---------------------|--------------------|-------------------|

Guitar 2:

|-----------------------|
|----------8~-----------|
|--7----9-------9----7--|
|-----------------------|
|-----------------------|
|-----------------------|

--------------------|-----------------------|--------------------|
--------------------|-----------------------|--------------------|
----9----5----------|--4----5--7----5----4--|----5----7----------|
--------------------|-----------------------|--------------------|
--------------------|-----------------------|--------------------|
--------------------|-----------------------|--------------------|

-----------------------|--------------------|-----------------------|
----------8~-----------|--------------------|-----------------------|
--7----9-------9----7--|----9----5----------|--4----5--7----5----4--|
-----------------------|--------------------|-----------------------|
-----------------------|--------------------|-----------------------|
-----------------------|--------------------|-----------------------|

--------------------|-----------------------|--------------------|
--------------------|----------8~-----------|--------------------|
----5----7----------|--7----9-------9----7--|----9----5----------|
--------------------|-----------------------|--------------------|
--------------------|-----------------------|--------------------|
--------------------|-----------------------|--------------------|

-----------------------|--------------------|-----------------------|
-----------------------|--------------------|----------8~-----------|
--4----5--7----5----4--|----5----7----------|--7----9-------9----7--|
-----------------------|--------------------|-----------------------|
-----------------------|--------------------|-----------------------|
-----------------------|--------------------|-----------------------|

--------------------|--------------------|-------------------|
--------------------|--------------------|-------------------|
----9----5----------|--4--------5--------|--7----------------|
--------------------|--------------------|-------------------|
--------------------|--------------------|-------------------|
--------------------|--------------------|-------------------|

Guitar 3:

|--------------------------|
|--------------------------|
|--------------------------|
|--3--3--3--3--3--3--3--3--|
|--3--3--3--3--3--3--3--3--|
|--3--3--3--3--3--3--3--3--|

--------------------------|--------------------------|
--------------------------|--------------------------|
--------------------------|--------------------------|
--3--3--3--3--3--3--3--3--|--5--5--5--5--5--5--5--5--|
--3--3--3--3--3--3--3--3--|--5--5--5--5--5--5--5--5--|
--3--3--3--3--3--3--3--3--|--5--5--5--5--5--5--5--5--|

--------------------------|
--------------------------|
--------------------------|
--5--5--5--5--5--5--5--5--|
--5--5--5--5--5--5--5--5--|
--5--5--5--5--5--5--5--5--|
Calificar esta versión:
Aviso: Este fichero es trabajo propio de su transcriptor y representa su interpretación personal de la canción. El material contenido en esta página es para exclusivo uso privado, por lo que se prohibe su reproducción o retransmisión, así como su uso para fines comerciales.