Say Goodnight, Bullet For My Valentine (tablatura) (ver 2)

Autor: Hyabuza | 43039 visualizaciones

Intro 4x
D|---------------------------------------------------------------
A|---------------------------------------------------------------
F|----------0--------------0-------0-----------------------------
C|-----4------4---4----------4---4---4---------------------------
G|---7---7------7-------7------5---------------------------------
D|-0------------------0------------------------------------------


Verse 3x
D|----------0----------------------------------------------------
A|------0-----0--------------------------------------------------
F|--------0-----0-------0-----0----------------------------------
C|--------------------4-----4---4--------------------------------
G|---7------------2-3-----5-------5------------------------------
D|-0-------------------------------------------------------------


D|----------0----------------------------------------------------
A|------0-----0------3------7*-----------------------------------
F|--------0-----0----0---5*--------------------------------------
C|-------------------2-------------------------------------------
G|---7------------2--3-------------------------------------------
D|-0-------------------------------------------------------------

D|----------0----------------------------------------------------
A|------0-----0------3------7*-----------------------------------
F|--------0-----0----0---5*--------------------------------------
C|-------------------2-------------------------------------------
G|---7------------2--3-------------------------------------------
D|-0-------------------------------------------------------------




Ref
D|---------0-------------0---------------------0----------0------
A|-----3-----3-------------3---------------0-----0----------0----
F|-------0-----0------------------0----------0-----0----------0--
C|---2----------------2---------4---4---------------------------
G|-3-------------3--3--------/5-----------7--------------7---/5--
D|--------------------------------------0------------0-0---------


D|---------0------------0--------------0---5*--------------------
A|-----3-----3------------3------------0------5*-----7*----------
F|-------0-----0-----------------0-----0---------5*-----7*-------
C|---2---------------2---------4---4---2-------------------------
G|-3-------------3-3--------/5---------2-------------------------
C|-------------------------------------0-------------------------


Verse 3x
D|----------0----------------------------------------------------
A|------0-----0--------------------------------------------------
F|--------0-----0-------0-----0----------------------------------
C|--------------------4-----4---4--------------------------------
G|---7------------2-3-----5-------5------------------------------
D|-0-------------------------------------------------------------


D|----------0----------------------------------------------------
A|------0-----0------3-------------------------------------------
F|--------0-----0----0-------------------------------------------
C|-------------------2-------------------------------------------
G|---7------------2--3-------------------------------------------
D|-0---------------------3-2-------------------------------------

      4x
D|----------0----------------------------------------------------
A|------0-----0--------------------------------------------------
F|--------0-----0-------0-----0----------------------------------
C|--------------------4-----4---4--------------------------------
G|---7------------2-3-----5-------5------------------------------
D|-0-------------------------------------------------------------


Ref
D|---------0-------------0---------------------0----------0------
A|-----3-----3-------------3---------------0-----0----------0----
F|-------0-----0------------------0----------0-----0----------0--
C|---2----------------2---------4---4---------------------------4---4-|
G|-3-------------3--3--------/5-----------7--------------7---/5--
D|--------------------------------------0------------0-0---------


D|---------0------------0--------------0-0-0-0-0-0-0-0-0-x-x---x-x---x-x---|
A|-----3-----3------------3------------0-0-0-0-0-0-0-0-0-x-x---x-x---x-x---|
F|-------0-----0-----------------0-----0-0-0-0-0-0-0-0-0-x-x-5-x-x---x-x-7-|
C|---2---------------2---------4---4---2-2-2-2-2-2-2-2-2-x-x-5-x-x-5-x-x-7-|
G|-3-------------3-3--------/5---------2-2-2-2-2-2-2-2-2-x-x-3-x-x-5-x-x-5-|
C|-------------------------------------0-0-0-0-0-0-0-0-0-x-x---x-x-3-x-x---|
				       - - - - -



     4x
D|-0--0-x---0-0-x-x--------x-x---x-x---x-x--0--0-x---0-0-x-x--------x-x---x-x---x-x--|--0--|
A|-0--0-x---0-0-x-x--------x-x---x-x---x-x--0--0-x---0-0-x-x--------x-x---x-x---x-x--|--0--|
F|-0--0-x---0-0-x-x-5--5-5-x-x---x-x-7-x-x--0--0-x---0-0-x-x-5--5-5-x-x---x-x---x-x--|--0--|
C|-2--2-x---2-2-x-x-5--5-5-x-x-5-x-x-7-x-x--2--2-x---2-2-x-x-5--5-5-x-x-5-x-x-4-x-x--|--2--|
G|-2--2-x---2-2-x-x-3--3-3-x-x-5-x-x-5-x-x--2--2-x---2-2-x-x-3--3-3-x-x-5-x-x-4-x-x--|--2--|
C|-0--0-x---0-0-x-x--------x-x-3-x-x---x-x--0--0-x---0-0-x-x--------x-x-3-x-x-2-x-x--|--0--|


     3x
D|------------------0--|------------------0-0-0-0-0-0-0-0-0-x-x---x-x---x-x----------------|
A|------------------0--|------------------0-0-0-0-0-0-0-0-0-x-x---x-x---x-x----------------|
F|-----0-----0------0--|-----0-----0------0-0-0-0-0-0-0-0-0-x-x-5-x-x---x-x-7--------------|
C|---4-----4---4----2--|---4-----4---4----2-2-2-2-2-2-2-2-2-x-x-5-x-x-5-x-x-7--------------|
G|-3-----5-------5--2--|-3-----5-------5--2-2-2-2-2-2-2-2-2-x-x-3-x-x-5-x-x-5--------------|
C|------------------0--|------------------0-0-0-0-0-0-0-0-0-x-x---x-x-3-x-x----------------|
					  - - - - -

     2x
D|-0--0-x---0-0-x-x--------x-x---x-x---x-x--0--0-x---0-0-x-x--------x-x---x-x---x-x--|--0--|
A|-0--0-x---0-0-x-x--------x-x---x-x---x-x--0--0-x---0-0-x-x--------x-x---x-x---x-x--|--0--|
F|-0--0-x---0-0-x-x-5--5-5-x-x---x-x-7-x-x--0--0-x---0-0-x-x-5--5-5-x-x---x-x---x-x--|--0--|
C|-2--2-x---2-2-x-x-5--5-5-x-x-5-x-x-7-x-x--2--2-x---2-2-x-x-5--5-5-x-x-5-x-x-4-x-x--|--2--|
G|-2--2-x---2-2-x-x-3--3-3-x-x-5-x-x-5-x-x--2--2-x---2-2-x-x-3--3-3-x-x-5-x-x-4-x-x--|--2--|
C|-0--0-x---0-0-x-x--------x-x-3-x-x---x-x--0--0-x---0-0-x-x--------x-x-3-x-x-2-x-x--|--0--|
Calificar esta versión:
Aviso: Este fichero es trabajo propio de su transcriptor y representa su interpretación personal de la canción. El material contenido en esta página es para exclusivo uso privado, por lo que se prohibe su reproducción o retransmisión, así como su uso para fines comerciales.
Más versiones de Say Goodnight, Bullet For My Valentine
Say Goodnight
tablatura
Say Goodnight (ver 2)
tablatura
Descubre más canciones de Bullet For My Valentine