Road To Nowhere, Bullet For My Valentine (acordes) (ver 2)

Autor: berfegor | 23822 visualizaciones

abmdfsosmgg7
Intro: Bm  G  A  D  F#m
       Bm  G  A  F#m

Bm        G                     A 
Tired and lonely still we stand
                    F#m
on a road to nowhere
Bm           G                     A 
Trapped in a world of endless days
                     F#m
my engine's stalling [road to nowhere]
Bm       G                    A 
Body and mind are breaking down
                        F#m
on this road to nowhere
Bm      G                  A 
Destiny silent hear no sound

as i wait forever

G7              A 
Farewell, i'll miss you
    F#m             Bm
i'm sick of these goodbyes
         G [deixa soar]
'Cause it tore us apart right from the start
A
I miss you
E|-------------------------------------------------------------------------|
B|---------------------xh3-2-0-2-3-5-3-x-h7-5-3-5-3-2-3-xh7-5-3-5-7-8-7----|
G|----------------2----x---------------x----------------x------------------|
A|----------0h2h4------x---------------x----------------x------------------|
A|-----0h2-----------------------------------------------------------------|
D|-0h2---------------------------------------------------------------------|

Bm           G
Feeling have failed me
           A 
left me cold
                      F#m
on this road to nowhere
Bm            G
Dreams are my saviors
           A 
save me now
                        F#m
'Cause I know I'm falling

G7              A 
Farewell, i'll miss you
    F#m              Bm
i'm sick of these goodbyes
         G [deixa soar mano]
'Cause it tore us apart right from the start
A
I miss you
D|---------------------------------------------------------|
A|---------------------------------------------------------|
F|---------------------------------------------------------|
C|-9--------------9--------------9------11--9--7--7--9--11-|
G|-9------9-------9------9-------9------11--9--7--7--9--11-|
D|-9[2x]--9[27x]--9[3x]--9[20x]--9[7x]--9---7--5--5--7--9--|

Candles burn slowly,
Flames shine so brightly
Light in the darkness,
Save me from madness again
Only the lonely,
could possibly know me
Heat keeps on rising,
Fire engulfs me again

D              A 
Farewell, i'll miss you
    D              Bm
i'm sick of these goodbyes
         G
'Cause it tore us apart right from the start
A
I miss you

D              A 
Farewell, i'll miss you
    D              Bm
i'm sick of these goodbyes
         G [vai soando]
'Cause it tore us apart right from the start
A
I miss you
[dedilhado final]
D|--------7---------------|
A|--------------------7---|
F|-----9------------------|
C|---9----------9--7------|
G|-7----------7-----------|
D|------------------------|
Calificar esta versión:
Aviso: Este fichero es trabajo propio de su transcriptor y representa su interpretación personal de la canción. El material contenido en esta página es para exclusivo uso privado, por lo que se prohibe su reproducción o retransmisión, así como su uso para fines comerciales.
Más versiones de Road To Nowhere, Bullet For My Valentine
Road To Nowhere
acordes
Road To Nowhere (ver 2)
acordes
Descubre más canciones de Bullet For My Valentine