Falsa Identidad, Bulldog (tablatura)

Autor: Anónimo | 28839 visualizaciones



Intro
                    A                E                D      A
e-|---------------|-----------------5-4--------4-5-4---4-5-----|
b-|---------------|--5-2-3-2-3-5--5-----7-5-7--------7---------|
g-|---7-9-7-9-7---|-2------------------------------------------|
d-|-7-7-7-7-7-7-7-|--------------------------------------------|
a-|-7-----------7-|--------------------------------------------|
E-|-5-----------5-|--------------------------------------------|

    A                   E                      D            A
e-|--------------------5-4-------------5-4---4-5---------------|
b-|---2-5-2-3-2-3-5--5-----7-5-7-5-7-5-----7-------------------|
g-|-2----------------------------------------------------------|
d-|------------------------------------------------------------|
a-|------------------------------------------------------------|
E-|------------------------------------------------------------|

A         E    D        A
No puedo creer, lo que paso
A         E   D           A
Un amigo por su chica me dejo
A          E              D
El no era asi, eso es lo peor
                                  A
Con el tiempo ella de a poco lo cambio

D                     A
Si no fuera por su chica
                 E              A
El seria el de antes, seria el mejor
D                     A
Ya no va mas a la cancha
                       E                       A-D/A-D-E/%E
No va mas a los arranques, todo esto es un bajon

AGUANTE EL PUNK!!!! LUIS_DAMMIT





Calificar esta versión:
Aviso: Este fichero es trabajo propio de su transcriptor y representa su interpretación personal de la canción. El material contenido en esta página es para exclusivo uso privado, por lo que se prohibe su reproducción o retransmisión, así como su uso para fines comerciales.
Más versiones de Falsa Identidad, Bulldog
Falsa Identidad
acordes
Falsa Identidad
tablatura
Descubre más canciones de Bulldog