El Grito Silencioso, Bulldog (tablatura)

Autor: Anónimo | 25849 visualizaciones



intro:

       G            A          F#              B
e|-----------------------------------------------|
B|-----------------------------------------------|
G|-----------------------------------------------|
D|-2-4-5-4--5-4-2-----------4-5-7-5-7-4--5-4-----|
A|----------------5-/7-7-7-------------------7-5-|
E|-----------------------------------------------|

   G                               A                               D
e|-------------------------------------------------------------------|
B|-------------------------------------------------------------------|
G|-----------------------------------------4-4-4-4-6-6-6-6-7-6-7-6-7-| X2
D|-----------------4-4-4-4-5-5-5-5-7-7-7-7---------------------------|
A|-5-5-5-5-7-7-7-7---------------------------------------------------|
E|-------------------------------------------------------------------|


solo:
   D                                   B
e|----------------------------------------------------|
B|----------------------------------------------------|
G|----7---7---7---7---7---7---9b11r9-9-7----7---7-----|
D|-/7---7---7---7---7---7---7------------9----9---9-7-|
A|----------------------------------------------------|
E|----------------------------------------------------|

     D                               B
e|-------------------------------------------------------|
B|----------------10------10------10------10-------------|
G|-----7-9-7-9b11----9b11----9b11----9b11----varias veces|
D|-7-9---------------------------------------------------|
A|-------------------------------------------------------|
E|-------------------------------------------------------|

       G           A                   F#                   B
e|-----------------10----10-12---10-12-12b14-10-12b14r12-10----|
B|-/10-10-12-10-12----12------------------------------------12-|
G|-------------------------------------------------------------|
D|-------------------------------------------------------------|
A|-------------------------------------------------------------|
E|-------------------------------------------------------------|

            G                        A
e|----10-12-12-12-12-14-14-14-15----------------|
B|-12-----------------------------12-12---14-15-|
G|----------------------------------------------|
D|----------------------------------------------|
A|----------------------------------------------|
E|----------------------------------------------|

    D              B          D                      B
e|-----------------------------------------------------------|
B|--------------------------------------------------------10-|
G|--7-------------------------7---7------------------7-------|
D|--7--------------9------------7---7- ----------7-9---------|
A|--5--------------9-------------------------7-9-------------|
E|-----------------7----------------------10-----------------|

       G             A          F#             B
e|---------------------------------------------------|
B|---------------------------------------------------|
G|-7-7-9-7-6-7-6-------------6-7-9-7-6-7-6-----------|
D|---------------9-7/9-9-9-----------------9-7/9-9-9-|
A|---------------------------------------------------|
E|---------------------------------------------------|

  G                               A                               D
e|-------------------------------------------------------------------|
B|-------------------------------------------------------------------|
G|-----------------------------------------4-4-4-4-6-6-6-6-7-6-7-6-7-|
D|-----------------4-4-4-4-5-5-5-5-7-7-7-7---------------------------|
A|-5-5-5-5-7-7-7-7---------------------------------------------------|
E|-------------------------------------------------------------------|


anarkkky@hotmail.com





Calificar esta versión:
Aviso: Este fichero es trabajo propio de su transcriptor y representa su interpretación personal de la canción. El material contenido en esta página es para exclusivo uso privado, por lo que se prohibe su reproducción o retransmisión, así como su uso para fines comerciales.
Más versiones de El Grito Silencioso, Bulldog
El Grito Silencioso
acordes
El Grito Silencioso
tablatura
Descubre más canciones de Bulldog