El Angel De La Muerte, Bulldog (tablatura)

Autor: Anónimo | 17160 visualizaciones



(aclaro que el tema lo saque del disco
"yo estuve ahi y nosotros tmb")
intro
empieza una guitarra arpeguiando un LA de la siguiente manera:
e-------------------
B------2---2---2----
G----2---2---2---2--
D-------------------
A--0----------------
E-------------------x2

e--------------------------------------------------|
B------2---2---2-----------------2---2--2----------|
G----2---2---2---2--2-2-4-6----2---2--2--2-2-2-4-2-|
D--------------------------------------------------|
A--0-------------------------0---------------------|
E--------------------------------------------------|
La otra guitarra
e--------------------------------------------|
B--------------------------------------------|
G--------------------------------------------|
D---7---7-9-11-11-14-11-11h12-12-12-12-11--7-|
A--------------------------------------------|
E--------------------------------------------|

e--------------------------------------------|
B-----------------------------------12-------|
G--------------------------------------------|
D---7--9-11-11-14-11-11-12-12/14-14----------|
A--------------------------------------------|
E--------------------------------------------|

e---------------------------5---5------------|
B--------------------------------------------|
G-----------14-14-13-11-9-7---7--------------|
D--14-15-16----------------------------------|
A--------------------------------------------|
E--------------------------------------------|

e--------------------------------------------|
B--------------------------------------------|
G--6h7p6-------------------------------------|
D---------9h11p9---7h9p7(varias veces)-------|
A--------------------------------------------|
E--------------------------------------------|

Despúes lo repite con un par de cambios minimos





Calificar esta versión:
Aviso: Este fichero es trabajo propio de su transcriptor y representa su interpretación personal de la canción. El material contenido en esta página es para exclusivo uso privado, por lo que se prohibe su reproducción o retransmisión, así como su uso para fines comerciales.
Más versiones de El Angel De La Muerte, Bulldog
El Angel De La Muerte
acordes
El Angel De La Muerte
tablatura
Descubre más canciones de Bulldog