Condenado El Corazon, Buitres (tablatura)

Autor: Anónimo | 44699 visualizaciones



Intro: 
  DO       LAm       DO       LAm
e----------------------------------------|-
b----------------------------------------|-
g----------------------------------------|-
d-10-10-10-7---7-7-7-10-10-10-7----7-7-7-|-
a-10-10-10-7---7-7-7-10-10-10-7----7-7-5-|-
e--8--8--8-5---5-5-5--8--8--8-5----5-5-5-|-
 
  DO       FA         DO       FA
e--------------------------------------------|-
b--------------------------------------------|-
g----------10---10-10-10----------10---10-10-|-
d-10-10-10-10---10-10-10-10-10-10-10---10-10-|-
a-10-10-10--8----8--8--8-10-10-10--8----8--8-|-
e--8--8--8----------------8--8--8------------|-

  DO       LAm       DO       LAm
e----------------------------------------|-
b----------------------------------------|-
g----------------------------------------|-
d-10-10-10-7---7-7-7-10-10-10-7----7-7-7-|-
a-10-10-10-7---7-7-7-10-10-10-7----7-7-5-|-
e--8--8--8-5---5-5-5--8--8--8-5----5-5-5-|-
 
  DO       FA         DO       FA
e--------------------------------------------|-
b--------------------------------------------|-
g----------10---10-10-10----------10---10-10-|-
d-10-10-10-10---10-10-10-10-10-10-10---10-10-|-
a-10-10-10--8----8--8--8-10-10-10--8----8--8-|-
e--8--8--8----------------8--8--8------------|-


1)
LAm              SOL           REm         FA
Yo arrastre mi cuerpo hasta verlo sangrar
LAm            SOL          REm      FA
solo para arrancarte de mi piel
LAm             SOL           REm         FA
pero un cunjuro de tus labios me envolvió
LAm           SOL           REm        FA
caí y jure ya no volverte a ver.

Inter = intro

1)
Ella tiene mi sed atrapada en su palidez

yo llevo en cada mano un puñal

la sombra de mi vuelo y tu ansiedad

los cuerpos frios al amanecer.

2)

Quise evitar la fiebre de tu piel

y ahora que estás aquí no me puedo mover.

Estribillo:

LAm
Malditos tus ojos
   FA                       DO
me tienen condenado el corazón
               SOL    MI
al juego de su luz.   

Estribillo.

Solo:

  DO      LAm             DO     LAm
e----------------------|----------------------|-
b--8---8--10´-10-10-10-|--8---8--10´-10-10-10-|-
g----9-----------------|----9-----------------|-
d----------------------|----------------------|-
a----------------------|----------------------|-
e----------------------|----------------------|-
   DO     FA            DO     FA                    
e---------8^---------|---------8^---------|-
b--8---8----10--8----|--8---8----10--8----|-
g----9------------9--|----9------------9--|-
d--------------------|--------------------|-
a--------------------|--------------------|-
e--------------------|--------------------|-
   DO     LAm             DO     LAm
e----------------------|----------------------|-
b--8---8--10´-10-10-10-|--8---8--10´-10-10-10-|-
g----9-----------------|----9-----------------|-
d----------------------|----------------------|-
a----------------------|----------------------|-
e----------------------|----------------------|-
   DO     FA            DO     FA          LAm [el LAm que pertenece a 1)]
e---------8^---------|-------------------|------
b--8---8----10--8----|--8---8--10-10-8---|-10´`-
g----9------------9--|----9------------9-|------
d--------------------|-------------------|------
a--------------------|-------------------|------
e--------------------|-------------------|------

1)
Sus ojos miran como los de un animal
sin lugar a donde escapar
que lame sus heridas y vuelve a correr
sin pensar que habrá una última vez.
2)
Corrí una noche alejandome
y sin embargo hoy estoy aquí otra vez.

Estribillo.

Estribillo.

Inter: LAm.................... MI

Estribillo.

Estribillo.

Solo.
Variación del mismo solo.

´= ESTIRAR LA CUERDA
`= RELAJAR LA CUERDA
^= VIBRATO

Fuente original: LaCuerda
Colaborador original: Santiago da Rosa [santiagodr@i.com.uy]





Calificar esta versión:
Aviso: Este fichero es trabajo propio de su transcriptor y representa su interpretación personal de la canción. El material contenido en esta página es para exclusivo uso privado, por lo que se prohibe su reproducción o retransmisión, así como su uso para fines comerciales.
Más versiones de Condenado El Corazon, Buitres
Condenado El Corazón
acordes
Condenado El Corazon
tablatura
Descubre más canciones de Buitres