El Carretero, Buenavista Social Club (tablatura)

Autor: Anónimo | 25405 visualizaciones

Esa canción refleja el esfuerzo contínuo que realiza
la gente que trabaja en realidad y sacrifica todo
lo que tiene por relizarlo bien:

Aqui va. Trata de acentuar los bajos, que es lo 
principal en la canción:

    E     A
e---0-----0--|
b---0-----1--|
g---1-----2--|
d------------|
a---------0--|
E-1-0--1-----|

Intro, Versos...

Para el final utiliza:

   Dm    Am    E7    Am
e---1----0------0-----0-|
b---3----1------3-----1-|
g---2----2------1-----2-|
d--0--------------------|
a-------0------------0--|
E--------------0--------|

Disfrutenla...
Calificar esta versión:
Aviso: Este fichero es trabajo propio de su transcriptor y representa su interpretación personal de la canción. El material contenido en esta página es para exclusivo uso privado, por lo que se prohibe su reproducción o retransmisión, así como su uso para fines comerciales.
Más versiones de El Carretero, Buenavista Social Club
El Carretero
acordes
El Carretero
tablatura
Descubre más canciones de Buenavista Social Club