Nalgas, Buena Fe (tablatura)

Autor: SLASH100 | 42689 visualizaciones



INTRO

      Bm                G
e---------5---5--7/9-7---10-9-7-5------
B----7--7---7---------------------7----
G----7---------------------------------
D--------------------------------------
A--------------------------------------
E--------------------------------------

      Bm                 G
e---------5---5--7/9-7---12-10-9-7-5---
B----7--7---7------------------------7-
G----7---------------------------------
D--------------------------------------
A--------------------------------------
E--------------------------------------
     Bm                  G
e---------5---5--7/9-7---10-9-7-5---5-----
B----7--7---7---------------------7---7/5-
G----7------------------------------------
D-----------------------------------------
A-----------------------------------------
E-----------------------------------------

     Bm                  G
e---------5---5--7/9-7---10-12-10----9-10--9-
B----7--7---7------------12-12-12---10-10-10-
G----7---------------------------------------
D--------------------------------------------
A--------------------------------------------
E--------------------------------------------

(1)
  Bm
Mira que elaboro las ideas
             G
oprimo mis neuronas pero le parecen feas
  D
diserto de versos de alberti o de Pablo
      E                 E7
la muy condenada no entiende lo que hablo
 G                            D
y yo soy presa del machismo ancestral
                                A
maldigo 10 veces a quien la parió
                            G
increpo al sistema educacional
        Em                                     D
se se será que la idiotez también la manda Dios
                           A
a veces de forma proporcional
                           G
a cuanta curva guarde el armazón

(1)
mira que teoriso sobre el gusto
mi boca enciclopedica mis ojos a su busto
recuerdo a mi abuela y su sabia retreta
hay cosas que halan mas que cuatro carretas
yo la veo como parte hacia el monton
me pierdo en el espacio sideral
me asalta por la espalda una razon
se se sera la historia siempre gira en espiral
si tiembla cual tambor del cimarrón
si suenas cual volin del mayoral

e----7-9-10-9-10-9-7----7------------
B--------------------10--------------
G------------------------------------
D------------------------------------
A------------------------------------
E------------------------------------

(coro)
          Bm
son tus nalgas dos joyas del baile
              G
líricas del tacto poemas escritos por natura
    Bm                                     Em
en braille, desbordan espacios, paralizan tiempos

todo un evento
Bm
nalgas como el kilimanjaro
                G
el frio en la distancia que aleja un infinito de dulzura
       Bm
de mis manos, desbordan espacios,
             Em
paralizan tiempos
                 Bm                  G  Bm  G
todo un evento         todo un evento

(Intro)

(1)
Ella pasa y todos se hacen los simpáticos
desde los mas vulgares hasta exelsos catedráticos
se va contoneando sabiendoce encima
de un par de corazas para su autoestima
y yo bien firme como pose militar
le rindo honores a su criollez
me enorgullezco de latinidad
se se será que lo bello pasa por la apreciación
disfrute su momento de esbeltez
y pongale cabeza al interior

Coro x 2





Comentarios del colaborador: JAJA esta exelente esta cancion ojala les ayude

Calificar esta versión:
Aviso: Este fichero es trabajo propio de su transcriptor y representa su interpretación personal de la canción. El material contenido en esta página es para exclusivo uso privado, por lo que se prohibe su reproducción o retransmisión, así como su uso para fines comerciales.
Más versiones de Nalgas, Buena Fe
Nalgas
acordes
Nalgas
tablatura
Descubre más canciones de Buena Fe