Guanuqueando, Bruno Arias (tablatura)

Autor: pabloarroyo18 | 43860 visualizaciones



e||--3---5---7---8-8===-8-8----12----12==-5--5----2--3-5--|
B||--0-0---0---0--8------7-7===---10------5-5-4==-0-0-0-0-|
G||--0--------------------------------------------0-------|
D||--0----------------------------------------------------|
A||-------------------------------------------------------|
E||-------------------------------------------------------|

Estos acordes lo tienes que tocar con ARPEGIOS:

Melodia:
MI menor    Si menor    Do mayor     Sol mayor
La menor    Sol mayor   Fa mayor     Re7
Sol mayor...

Corte:
e||--------------|
B||--3-----1-----|
G||------0-----0-|
D||----0-----0---|
A||--------------|
E||--3-----2-----|

Melodia:
MI menor    Si menor    Do mayor     Sol mayor
La menor    Sol mayor   Fa mayor     Re7
Sol mayor...

Corte:
e||--------------|
B||--0-----------|
G||------0-2---0-|
D||----0-----0---|
A||--------------|
E||--3-----2-----|

Melodia:
MI menor    Si menor    Do mayor     Sol mayor
La menor    Sol mayor   Fa mayor     Re7
Sol mayor...

Corte:
e||--0--0--0-|
B||--1--0--1-|
G||--2--0--0-|
D||----------|
A||--0-----3-|
E||-----0----|

Estribilla con arpeguios:
Re7         Do mayor     Re7         Re7
Si7         Si7          Do mayor    Re mayor
Do mayor    Do mayor     Do Menor    Do Menor
Sol mayor...luego vienen los cortes de la melodia...
dejen comentarios





Calificar esta versión:
Aviso: Este fichero es trabajo propio de su transcriptor y representa su interpretación personal de la canción. El material contenido en esta página es para exclusivo uso privado, por lo que se prohibe su reproducción o retransmisión, así como su uso para fines comerciales.
Más versiones de Guanuqueando, Bruno Arias
Guanuqueando
acordes
Guanuqueando
tablatura
Descubre más canciones de Bruno Arias