I Do, Boom Boom Kid (bajo)

Autor: Anónimo | 35818 visualizaciones



Intro:

G-------------------------------------|
D-------------------------------------|
A-------------------------------------|
E--1--1-1---1--1-1---1--1-1---1--1-1--|

Verso: 'Cuando llamaste esta tarde...'

G------------------------------------|
D------------------------------------|
A-------------------5--5-5---5--5-5--|
E--1--1-1--1--1-1--------------------|x4

Coro: 'I do but what...'

G------------------------------------------------------------------|
D----------------------------------3--3-3-3-3-3-3--1--1-1-1-1-1-1--|
A------------------1--1-1-1-1-1-1----------------------------------|
E--3--3-3-3-3-3-3--------------------------------------------------|

G------------------------------------------------------------------|
D----------------------------------3--3-3-3-3-3-3--1--1-1-1-1-1-1--|
A--1--1-1-1-1-1-1--3--3-3-3-3-3-3----------------------------------|
E------------------------------------------------------------------|x3

G----------------------------------|
D----------------------------------|
A--1--1-1-1-1-1-1--3--3-3-3-3-3-3--|
E----------------------------------|

Vuelve al principio:

G-------------------------------------|
D-------------------------------------|
A-------------------------------------|
E--1--1-1---1--1-1---1--1-1---1--1-1--|

Verso: 'Cuando llamaste esta tarde...'

G------------------------------------|
D------------------------------------|
A-------------------5--5-5---5--5-5--|
E--1--1-1--1--1-1--------------------|x4

Coro: 'I do but what...'

G------------------------------------------------------------------|
D----------------------------------3--3-3-3-3-3-3--1--1-1-1-1-1-1--|
A------------------1--1-1-1-1-1-1----------------------------------|
E--3--3-3-3-3-3-3--------------------------------------------------|

G------------------------------------------------------------------|
D----------------------------------3--3-3-3-3-3-3--1--1-1-1-1-1-1--|
A--1--1-1-1-1-1-1--3--3-3-3-3-3-3----------------------------------|
E------------------------------------------------------------------|x3

G----------------------------------|
D----------------------------------|
A--1--1-1-1-1-1-1--3--3-3-3-3-3-3--|
E----------------------------------|

Final: 'I give you my blood...'
                                x4
G------------------------------------------------------------------|-----|
D------------------------------------------------------------------|-----|
A--8--8-8-8-8-8-8--6--6-6-6-6-6-6--5--5-5-5-5-5-5--3--3-3-3-3-3-3--|--8--|
E------------------------------------------------------------------|-----|

Eso es todo es super fácil





Calificar esta versión:
Aviso: Este fichero es trabajo propio de su transcriptor y representa su interpretación personal de la canción. El material contenido en esta página es para exclusivo uso privado, por lo que se prohibe su reproducción o retransmisión, así como su uso para fines comerciales.
Más versiones de I Do, Boom Boom Kid
I Do
acordes
I Do (ver 2)
acordes
I Do
tablatura
I Do
bajo
Descubre más canciones de Boom Boom Kid