Click, Bonsur (tablatura)

Autor: daniel26 | 25374 visualizaciones



bueno esta cancion me gusta y es la primera de muchas que espero subir jeje

*la guitarra 1 realiza todo el rasgeuo de los acordes y la guitarra 2 las figuras y solos.


(fig.1)
e-------------------3--
B----3----3----1-------
G---0----2----2--------

INTRO G,D,Am x2(durante el intro se repite la fig.1 x2)

G 	
 hola te conosco
                     Am
desde hace  tiempo atras
                C
saliste a respirar


G
 con una flor de loto
                     Am       C
en su tumba de aguas negras a a

(fig.2)

e-----------3---3---5-5-
B--1---1---1---1---3-3--
G-2---2-----------------


Am
 me sentia tan tan mal y
                    C
es dificil de explicar
                                        D
cuando dejas de esperar todo puede suceder

en un mass

Coro(durante el coro va la fig.1 x4)

        G   D        Am
en un click todo paso
      G  D     Am
tu momento llego
        G   D         Am
en un click todo cambio
                          G
derrepente todo tiene sabor
   D    Am
amor amor
     G
lalala

(fig.3)x2

B----3-------3------3-------3--
G-0-0--00-0-0--00000--00-0-0---

B----1-------1----
G-2-2--22-2-2-----

e----3-------3----
B-1-1--11-1-1-1----



G
 las calles los otros
                   Am
el rumor de la ciudad
              C
todo sigue igual


G
 salvo por nosotros dos
                   Am    C
y las pistas de la radio..


(fig.2)x2

e-----------3---3-
B--1---1---1---1--
G-2---2-----------


Am
 no te dejes aplastar
                   C
te tenes que levantar

no hay mal que dure 100 años

Am
 todo queda por ganar
                       D
si no hay nada que perder


Coro(durante el coro va la fig.1 x4)

        G   D        Am
en un click todo paso
      G  D     Am
tu momento llego
        G   D         Am
en un click todo cambio
                          G
derrepente todo tiene sabor
   D    Am
amor amor
     G
lalala

Solo(G,D,Am)

e-----------------------------------------------------------
B-----------------------------------------------------------
G-----------------------------------------------------------
D-------------------14---------------------14----14/17-16---
A-12/14--12/14-12-10-----12/14--12/14-12-10----14-----------
E-----------------------------------------------------------

e----------------------------------
B----------------------------------
G----------------------------------
D-7/9----14/17-16--7/9-7-9-5-5/7---
A----12----------------------------
E----------------------------------

(fig.1)x2
e-------------------3--
B----3----3----1-------
G---0----2----2--------

hola te conosco
                      C
desde hace tiempo atras


Coro(durante el coro va la fig.1 x4)

        G   D        Am
en un click todo paso
      G  D     Am
tu momento llego
        G   D         Am
en un click todo cambio
                          G
derrepente todo tiene sabor
   D    Am
amor amor
     G
lalala

en esta parte los acordes son G,D,Am y para no repetir el solo pueden improbisar en pentatonica en E 


(fig.1)
e-------------------3--
B----3----3----1-------
G---0----2----2--------


hola te conosco...





Comentarios del colaborador: espero les guste creo esta todo muy claro,si tienen alguna duda oigan bien la cancion adis

Calificar esta versión:
Aviso: Este fichero es trabajo propio de su transcriptor y representa su interpretación personal de la canción. El material contenido en esta página es para exclusivo uso privado, por lo que se prohibe su reproducción o retransmisión, así como su uso para fines comerciales.
Más versiones de Click, Bonsur
Click
acordes
Click
tablatura
Descubre más canciones de Bonsur