It´s My Life, Bon Jovi (tablatura) (ver 2)

Autor: igna_diablo | 28497 visualizaciones



It’s My life


|---------------------------------------------------------------|
|---------------------------------------------------------------|
|---------------------------------------------------------------|
|--5---5---------------------------------x--x--5---5------------|
|--3---3---------------------------------x--x--3---3------------|
|--3---3---------------------------------x--x--3---3------------| 

This ain't a song for the broken hearted.
|-----------------------------------------------------------|
|-----------------------------------------------------------|
|-----------------------------------------------------------|
|--5------------------------------------5--5--x--x--5-------|
|--3------------------------------------3--3--x--x--3-------|
|--3------------------------------------3--3--x--x--3-------|

A silent prayer for the faith departed.
|----------------------------------------------------------|
|----------------------------------------------------------|
|----------------------------------------------------------|
|--5--5--------------------------------5--5--x--x--5-------|
|--3--3--------------------------------3--3--x--x--3-------|
|--3--3--------------------------------3--3--x--x--3-------|

And I ain't gonna be just a face in the crowd, you're gonna. 
|----------------------------------------------------------| 
|----------------------------------------------------------| 
|----------------------------------------------------------| 
|--5--5~~--------------------------------------------------| 
|--3--3~~--------------------------------------------------| 
|--3--3~~--------------------------------------------------| 

hear my voice when I shout it out loud.
|-------------------------------------| 
|-------------------------------------| 
|-------------------------------------| 
|--10---10----------------------------| 
|--8----8-----------------------------| 
|--8----8-----------------------------| 





It's my life,It's now or never, I ain't gonna live forever.   
|---------------------------------------------------------------|
|---------------------------------------------------------------|
|---------------------------------------------------------------|
|---------5--x--x--6------x--8-----------x--x--3----------x--5--| 
|---------3--x--x--6------x--6-----------x--x--1----------x--3--|
|---------3--x--x--4------x--6-----------x--x--1----------x--3--|

I just wanna live when I'm alive.
|-----------------------------------|   
|-----------------------------------|    
|-----------------------------------|    
|-------x--x--6----------x--3-------|     
|-------x--x--6----------x--1-------|    
|-------x--x--4----------x--1-------|   

             It's my life. 
|-----------------------------|
|-----------------------------|
|-----------------------------|
|----------------------5------|
|--1----2--------------3------|
|----------------------3------|

My heart is like an open highway. 
|------------------------------------|
|------------------------------------|
|------------------------------------|
|-------------x--x--6----------x--8--|
|-------------x--x--6----------x--6--|
|-------------x--x--4----------x--6--|

Like Frankie said, I did it my way. 
|-----------------------------------------|
|-----------------------------------------|
|-----------------------------------------|
|---------------x--x--3-------------x--5--|
|---------------x--x--1-------------x--3--|
|---------------x--x--1-------------x--3--|

I just wanna live when I'm alive.
|-----------------------------------------|   
|-----------------------------------------|    
|-----------------------------------------|    
|--------x--x--6---------------x--3-------|     
|--------x--x--6---------------x--1-------|    
|--------x--x--4---------------x--1-------|   

It’s my life                  
|----------------------------------------|
|----------------------------------------|
|----------------------------------------|
|----------5--5--------------------5--5--|
|-1---2----3--3--------------------3--3--|
|----------3--3--------------------3--3--|




This is for the one's who stood their ground. 
|----------------------------------------------------------------|
|----------------------------------------------------------------|
|----------------------------------------------------------------|
|--5-----------------------------------------5--5--x--x--5-------|
|--3-----------------------------------------3--3--x--x--3-------|
|--3-----------------------------------------3--3--x--x--3-------|

For Tommy and Gina, never back down. 
|----------------------------------------------------|
|----------------------------------------------------|
|----------------------------------------------------|
|-----5--5----------------------------5--5--x--x--5--|
|-----3--3----------------------------3--3--x--x--3--|
|-----3--3----------------------------3--3--x--x--3--|

Tomorrow's getting harder, make no mistake.
|-----------------------------------------| 
|-----------------------------------------| 
|-----------------------------------------| 
|--5--5~~---------------------------------| 
|--3--3~~---------------------------------| 
|--3--3~~---------------------------------| 

                                                    
Luck ain't even luck, you gotta make your own breaks.
|---------------------------------------------------| 
|---------------------------------------------------| 
|---------------------------------------------------| 
|--10--10~~-----------------------------------------| 
|--8---8~~------------------------------------------| 
|--8---8~~------------------------------------------| 




It's my life,It's now or never, I ain't gonna live forever.   
|---------------------------------------------------------------|
|---------------------------------------------------------------|
|---------------------------------------------------------------|
|---------5--x--x--6------x--8-----------x--x--3----------x--5--| 
|---------3--x--x--6------x--6-----------x--x--1----------x--3--|
|---------3--x--x--4------x--6-----------x--x--1----------x--3--|

I just wanna live when I'm alive.
|-----------------------------------|   
|-----------------------------------|    
|-----------------------------------|    
|-------x--x--6----------x--3-------|     
|-------x--x--6----------x--1-------|    
|-------x--x--4----------x--1-------|   

             It's my life. 
|-----------------------------|
|-----------------------------|
|-----------------------------|
|----------------------5------|
|--1----2--------------3------|
|----------------------3------|

My heart is like an open highway. 
|------------------------------------|
|------------------------------------|
|------------------------------------|
|-------------x--x--6----------x--8--|
|-------------x--x--6----------x--6--|
|-------------x--x--4----------x--6--|

Like Frankie said, I did it my way. 
|-----------------------------------------|
|-----------------------------------------|
|-----------------------------------------|
|---------------x--x--3-------------x--5--|
|---------------x--x--1-------------x--3--|
|---------------x--x--1-------------x--3--|

I just wanna live when I'm alive.
|-----------------------------------------|   
|-----------------------------------------|    
|-----------------------------------------|    
|--------x--x--6---------------x--3-------|     
|--------x--x--6---------------x--1-------|    
|--------x--x--4---------------x--1-------|   

It’s my life                  
|-----------|
|-----------|
|-----------|
|-----------|
|-1---2-----|
|-----------|



|--------------------------------------------------------------------------------------------------|
|--------------------------------------------------------------------------------------------------|
|--------------------------------------------------------------------------------------------------|
|--------------------------------------------------------------------------------------------------|
|--------------------------------------------------5--6--5--6--5--6--5--6--5--6--5--6--5--6--5--3~~|
|--4--6--4--6--4--6--4--6--4--6--4--6--4--6--4--6--------------------------------------------------|

|-------------------------------------------------------------------|
|-------------------------------------------------------------------|
|--------8--10br----12--12--10b--10r--8--10-------------------------|
|--8--10------------------------------------8--10~~--------1--------|
|--------------------------------------------------------1----3--3~~|
|------------------------------------------------------3------------|

Better stand tall when it's calling you out 
 Don't make no break, baby don't back down 
|-------------------------------------------------|
|-------------------------------------------------|
|-------------------------------------------------|
|------------------------------------------5---5--|
|------------------------------------------3---3--|
|------------------------------------------3---3--| 





It's my life,It's now or never, I ain't gonna live forever.   
|---------------------------------------------------------------|
|---------------------------------------------------------------|
|---------------------------------------------------------------|
|---------5--x--x--6------x--8-----------x--x--3----------x--5--| 
|---------3--x--x--6------x--6-----------x--x--1----------x--3--|
|---------3--x--x--4------x--6-----------x--x--1----------x--3--|

I just wanna live when I'm alive.
|-----------------------------------|   
|-----------------------------------|    
|-----------------------------------|    
|-------x--x--6----------x--3-------|     
|-------x--x--6----------x--1-------|    
|-------x--x--4----------x--1-------|   

             It's my life. 
|-----------------------------|
|-----------------------------|
|-----------------------------|
|----------------------5------|
|--1----2--------------3------|
|----------------------3------|

My heart is like an open highway. 
|------------------------------------|
|------------------------------------|
|------------------------------------|
|-------------x--x--6----------x--8--|
|-------------x--x--6----------x--6--|
|-------------x--x--4----------x--6--|

Like Frankie said, I did it my way. 
|-----------------------------------------|
|-----------------------------------------|
|-----------------------------------------|
|---------------x--x--3-------------x--5--|
|---------------x--x--1-------------x--3--|
|---------------x--x--1-------------x--3--|

I just wanna live when I'm alive.
|-----------------------------------------|   
|-----------------------------------------|    
|-----------------------------------------|    
|--------x--x--6---------------x--3-------|     
|--------x--x--6---------------x--1-------|    
|--------x--x--4---------------x--1-------|   

It’s my life                  
|-------------|
|-------------|
|-------------|
|----------5--|
|-1---2----3--|
|----------3--|


And It's now or never, I ain't gonna live forever.   
|-----------------------------------------------------|
|-----------------------------------------------------|
|-----------------------------------------------------|
|--x--x--6------x--8-----------x--x--3----------x--5--| 
|--x--x--6------x--6-----------x--x--1----------x--3--|
|--x--x--4------x--6-----------x--x--1----------x--3--|


I just wanna live when I'm alive.
|-----------------------------------|   
|-----------------------------------|    
|-----------------------------------|    
|-------x--x--6----------x--3-------|     
|-------x--x--6----------x--1-------|    
|-------x--x--4----------x--1-------|   

             It's my life. 
|-----------------------------|
|-----------------------------|
|-----------------------------|
|----------------------5------|
|--1----2--------------3------|
|----------------------3------|

My heart is like an open highway. 
|------------------------------------|
|------------------------------------|
|------------------------------------|
|-------------x--x--6----------x--8--|
|-------------x--x--6----------x--6--|
|-------------x--x--4----------x--6--|

Like Frankie said, I did it my way. 
|-----------------------------------------|
|-----------------------------------------|
|-----------------------------------------|
|---------------x--x--3-------------x--5--|
|---------------x--x--1-------------x--3--|
|---------------x--x--1-------------x--3--|

I just wanna live when I'm alive.
|-----------------------------------------|   
|-----------------------------------------|    
|-----------------------------------------|    
|--------x--x--6---------------x--3-------|     
|--------x--x--6---------------x--1-------|    
|--------x--x--4---------------x--1-------|   

It’s my life





Comentarios del colaborador: el solo no es el verdadero. el solo posta c hase con una talkbox pero si a este le ponen un wah-wah suena muy bien. saludos

Calificar esta versión:
Aviso: Este fichero es trabajo propio de su transcriptor y representa su interpretación personal de la canción. El material contenido en esta página es para exclusivo uso privado, por lo que se prohibe su reproducción o retransmisión, así como su uso para fines comerciales.
Más versiones de It´s My Life, Bon Jovi
It´s My Life
acordes
It´s My Life (ver 2)
acordes
It´s My Life (ver 3)
acordes
It´s My Life (ver 4)
acordes
It´s My Life (ver 5)
acordes
It´s My Life
tablatura
It´s My Life (ver 2)
tablatura
It´s My Life (ver 3)
tablatura
It´s My Life (ver 4)
tablatura
It´s My Life (ver 5)
tablatura
It´s My Life (ver 6)
tablatura
It´s My Life (ver 7)
tablatura
It´s My Life
bajo
Descubre más canciones de Bon Jovi