Penadas Por La Ley, Boikot (tablatura)

Autor: Anónimo | 25419 visualizaciones



Este es el solo de la cancion Penadas por la Ley  de este grupazo


e|---20-19-17-19-17----17------------------------------------17-
B|------------------20----20-18-20-18-17-20---20-20-20-18-18----
G|--------------------------------------------------------------
D|--------------------------------------------------------------
A|--------------------------------------------------------------
E|--------------------------------------------------------------

e|--------------------------------------------------------------
B|-20-18-18-17-18-20-18-17-18-17----17----------------17-----17-
G|-------------------------------19---19-17-19----19b----19b----
D|--------------------------------------------------------------
A|--------------------------------------------------------------
E|--------------------------------------------------------------

e|--------------------------------------------------------------
B|-----17-17-17-18-20-18-17-18-17-15-17-15-13-15-13-12-13-15-13-
G|-19b----------------------------------------------------------
D|--------------------------------------------------------------
A|--------------------------------------------------------------
E|--------------------------------------------------------------

e|--------------------------------------------------------------
B|-12-13-15-13-12-13-12-13-15-------------13-12-10----13-12-10--
G|----------------------------12----12-12----------12-----------
D|--------------------------------------------------------------
A|--------------------------------------------------------------
E|--------------------------------------------------------------

e|--------------------------------------------------------------
B|--------------------------------------------------------------
G|-12-10-12-10-9-10-9-10-12-10-9---------10-9----------------12-
D|-------------------------------10-9-10------12-----10-9-10----
A|--------------------------------------------------------------
E|--------------------------------------------------------------

e|--------------------------------------------------------------|
B|--------------------------------------------------------------|
G|-10-9-----------10-9---------------12-10-9--------------------|
D|--------10-9-10------12----10-9-10----------------------------|
A|--------------------------------------------------------------|
E|--------------------------------------------------------------|



made in Colombia

alguna sugerencia,..,.., etc....  a
[email protected]





Calificar esta versión:
Aviso: Este fichero es trabajo propio de su transcriptor y representa su interpretación personal de la canción. El material contenido en esta página es para exclusivo uso privado, por lo que se prohibe su reproducción o retransmisión, así como su uso para fines comerciales.
Más versiones de Penadas Por La Ley, Boikot
Penadas Por La Ley
acordes
Penadas Por La Ley
tablatura
Descubre más canciones de Boikot