No Pasarán, Boikot (tablatura)

Autor: Anónimo | 42852 visualizaciones



@Tab by Warrior and Piru
http://rockk.net

                              

                              BOIKOT: No pasaran
                                        ------------------
Joer,esta si tenia tela pk es larga y tiene muxos solillos pero ahi va.Rekuerda k son dos partes la kanzion en si y la de puente de los franceses... k tb tiene solo.Amos alla:

Intro 
-----
Am 
Esta mañana
Am
Me he levantado
Am                       Dm
oh Bella Ciao Bella Ciao Bella Ciaoo
Dm
Esta mañana
Am
Me he levantado
E             Am
y deskubierto al opresor

G G# A   G G# A   G G# A  

Estrofa
-------

Oh guerrillero
me voy kontigo 
         A          A          A    A    A
oh Bella Ciao Bella Ciao Bella Ciao Ciao Ciao

D
Oh guerrillero
A
me voy kontigo
       E         A
pk me siento aki morir

G G# A
Y si no kaigo
G G# A
en la guerrilla
G   G#     A         A          A    A    A
oh Bella Ciao Bella Ciao Bella Ciao Ciao Ciao

D
Y si no kaigo
A
en la guerrilla
      E         A
coge en tu mano mi fusil


Solo:
-----
E|------------------------------------------------------------|
B|------------------------------------------------------------|
G|-9-9-9-10-10-10-12-10-9-7-10-9-9-10-9-7----9-7-7-9-7--------|
D|----------------------------------------10----------10-9-7--|
A|------------------------------------------------------------|
E|------------------------------------------------------------|  

E|-12-12-12-13-12p10-13-12p10-13-12p10-13-12p10--12-10p8-12-10p8-12-10p8-12-10p8--10-8p7-10-8p7-10-8p7-10-8p7-4-4-5-|
B|------------------------------------------------------------------------------------------------------------------|
G|------------------------------------------------------------------------------------------------------------------|
D|------------------------------------------------------------------------------------------------------------------|
A|------------------------------------------------------------------------------------------------------------------|
E|------------------------------------------------------------------------------------------------------------------|  


Y la kanzion sigue hasta kuando la bateria empieza ha hacer el ritmo de: puente de los franceses...

Parte2:
------
    A                          D            A        E                   A
E|-------------------------------------------------------------------------|
B|-------------------------------------7-5-----5---------------------------|
G|-----------6-6-----------6-6---6-7-7----6--6---7-6---6-7-6-----6-7-6-----|
D|--7-7--7-9-----7-7---7-9-----9------------7--------6-------9-6-------9-7-|
A|-----7-------------7-----------------------------------------------------|
E|-------------------------------------------------------------------------|  

A
Puente de los franceses
A
puente de los franceses
D            A
puente de los franceses
       E           
mamita mia nadie te quiere
A
nadie te quiere


                  Si no te aklaras kon algo,tienes dudas,sugerencias,krees ke esta mal 
                        o simplemente te apeteze enviar un e-mail aki estoy
                                    
                                    <[email protected]>
                  
                  o visita la sekzion RockK ZOne de mi peich
                                       
                                    <http://rockK.net>
                  ¡Hasta otra!
                                                            Warrior_





Calificar esta versión:
Aviso: Este fichero es trabajo propio de su transcriptor y representa su interpretación personal de la canción. El material contenido en esta página es para exclusivo uso privado, por lo que se prohibe su reproducción o retransmisión, así como su uso para fines comerciales.
Más versiones de No Pasarán, Boikot
No Pasarán
acordes
No Pasarán
tablatura
No Pasarán (ver 2)
tablatura
Descubre más canciones de Boikot