Karraskal, Boikot (acordes)

Autor: er_rober | 31904 visualizaciones

aa6bccsosde6fgg6


 Intro 
-----
						
E|-15--------19-------19------19------19-------19------------|
B|--------------15------15------15------15--------15---------|
G|----14-12--------16------12------16------12-------16-------|
D|-----------------------------------------------------------|
A|-----------------------------------------------------------|
E|-----------------------------------------------------------| 
											      D A D A  G6
E|--------------------------------------------------------------------------------------------|
B|-15-0-13-0-12-0-13-0-15-0-13-0-12-0-13-0-15-0-13-0-13-0-12-0----15-0-13-0-12-0-13-0-15-0-13-|
G|-------------------------------------------------------------12-----------------------------|
D|--------------------------------------------------------------------------------------------|
A|--------------------------------------------------------------------------------------------|
E|--------------------------------------------------------------------------------------------|  

         G       C        D            G         G        C         D A D A  G6
E|-----------------------------------------------------------------------------------------|
B|-----------------------------------------------------------------------------------------|
G|---------12-11-9--11-12-11-9-------9--------------12-11-9--11-12-11-9---11-12-12-12-12---|
D|-9-10-12---------------------12-10---12---9-10-12---------------------12-----------------|
A|-----------------------------------------------------------------------------------------|
E|-----------------------------------------------------------------------------------------|  

Estrofa
-------
G                        C
Komo me divierte el telediario
D			 G
Cuánto adulteran el kontenido
G 			 C
Kien es periodista mas pringado
D A D A            E6
Ke manipula informativos

Estribillo:
----------
G          C         D                F  F  F
Karraskal, Karraskal ke maldita serenata ta ta
G          C         D  A  D  A       E6 
Karraskal, Karraskal ya no me des mas la lata

Puente:
-------
G C D G [en akordes mayores kon ritmo ska]

Luego va el solo kon los akordes G C D G

Y el último estribillo que es una nota mas alta:

A          D         E6                G  G  G
Karraskal, Karraskal ke maldita serenata ta ta
A          D         E6  D  E6  D       A6 
Karraskal, Karraskal ya no me des mas la lata

Y el final:

A          D               E6       E6       E6      D        C#            B         A 
Karraskal, Karraskal ya no me ya no me ya no mes ya no mes ya no me des mas La 
 





Comentarios del colaborador: Esta kanzion tambien esta sakada de el disko d boikot en direkto oto temasssssso

Calificar esta versión:
Aviso: Este fichero es trabajo propio de su transcriptor y representa su interpretación personal de la canción. El material contenido en esta página es para exclusivo uso privado, por lo que se prohibe su reproducción o retransmisión, así como su uso para fines comerciales.
Más versiones de Karraskal, Boikot
Karraskal
acordes
Karraskal
tablatura
Descubre más canciones de Boikot