Inés, Boikot (tablatura)

Autor: Anónimo | 18050 visualizaciones



Hola!!

En esta tablatura los silencios los silencios del
compás de 2/4, serán señalados así: %


1---------0-0-0-0-1--0---------0-0-0-0--1--0----
2---0-1-3-----------3-----0-1-3-----------3--1-1
3--2--------------------2-----------------------
4-----------------0-----------------------------
5---------------------------------------0-------
6--------------------0---------------------0----

1-----------------------------------------------
2-3-0-1--0--0------------3-0-1-0--0---------3-0-
3----------2---1-2--%--2--------2---1--2-%-2----
4------------------------0------------------0---
5-----0----------0-----------0---------0--------
6-0---------0---------------------0-------------

1----------------------
2-1--0---0-------------
3------2----1--2-------
4----------------------
5-0------------0-------
6------0---------------

Em                           C  Em
Hoy me he levantado he visto destrucción
Em                          C   Em
he bajado al parque y solo hay dolor
    D          C             B  Em
hoy no sale el Sol solo hay destrucción
  D     C      B     Em
Ines, Ines, inesita Ines
    D          C         B   Em
Hoy no sale el sol solo hay dolor
Em                         C   Em
Estoy sola en casa, en mi habitación
Em                          C   Em
donde estan mis padres que se les llevó

    D          C           B      Em
hoy no sale el Sol solo hay destrucción
  D      C      B    Em
Ines, Ines, inesita Ines
   D         C          B    Em
Hoy no sale el sol solo hay dolor
   D     C       B   Em
Ines, Ines, inesita Ines

A partir de aquí es donde deja de cantar el niño
y empieza a cantar el tio, así que empiezan a usar 
quintas. Se toca = k lo anterior solo k con quintas.

Así es el cinismo de la humanidad
cedieron el futuro a la industria militar
hoy no sale el Sol solo hay dolor
Ines, Ines, inesita Ines 
hoy no sale el Sol solo hay destrucción
Ines, Ines, inesita Ines
El mundo en que vives es irracional
nada les importa y es muy tarde ya
es muy tarde ya para cambiar
Ines, Ines, inesita Ines 
es muy tarde ya para cambiar
Ines, Ines, inesita Ines 
Un día llegará mi oportunidad
trabajo por un mundo al que tengo que cambiar
lucho por la paz y la libertad
Ines, Ines, inesita Ines

QUe la disfruteis:
Heavy metal  xa todos!!!





Calificar esta versión:
Aviso: Este fichero es trabajo propio de su transcriptor y representa su interpretación personal de la canción. El material contenido en esta página es para exclusivo uso privado, por lo que se prohibe su reproducción o retransmisión, así como su uso para fines comerciales.
Más versiones de Inés, Boikot
Inés
acordes
Inés
tablatura
Descubre más canciones de Boikot