Cualquier Dia, Boikot (tablatura)

Autor: nykolas | 17882 visualizaciones



e|----------------------------------------------------------------|
B|----------------------------------------------------------------|
G|----------------------------------------------------------------|
D|---------4-----4----4-------4-----------------------------------|
A|-2-2-2-2---2-2---2-2--2-2-2------------2-----4-----5-------4h2--|
E|-------------------------------3-3-3-3---3-3---3-3---3-3-3------|
                          Kualkier Dia

e|-------------------------------------------------------------------|
B|-------------------------------------------------------------------|
G|-------------------------------------------------------------------|
D|---------4-----5-----7-------5h4-----------------------------------|
A|-5-5-5-5---5-5---5-5---5-5-5--------------4------5-----7-------5h4-|
E|----------------------------------5-5-5-5----5-5---5-5---5-5-5-----|  X3
                          Kualkier Dia


    B5      B     G5     G     D5     D    A5     A
e|----------2------------3------------5-----------5-----------------|
B|----------4------------3------------7-----------5-----------------|
G|--------4-4------------4----------7-7-----------6-----------------|
D|--4-4---4-4----5-5---5-5----7-7---7-7----7-7--7-7-----------------|
A|--4-4---2-2----5-5---5-5----7-7---5-7----7-7--7-7-----------------|
E|--2-2---2-2----3-3---3-3----5-5---5-5----5-5--5-5-----------------| X4
    Kualkier Dia                  Kualkier Dia      Te Pueden Joder



B                  /               B
Te levantas de cama         |       |        En tu bolsillo
                G           |       |                 G
Son las 2 de la tarde       |       |        ¡Hay que joder!
          D                 |       |                    D
No tienes trabajo           |       |        Te queda lo justo
            A               |       |             A
Ni nada que hacer           |       |        Para comer
                            PALM MUTE
            B               |       |                 B
Saludas al dia              |       |        Pasado el rato
           G                |       |                G
Quizas con resaca           |       |        Decides gastar
                  D         |       |                    D
Y en el bar de la esquina   |       |        Lo poco que tienes
              A             |       |             A
3 cortaos con coñac         |       |        Para privar
                            /

B                                            B
Vas por la calle                             Compras unos porros
       G                                             G
Un dia cualquiera                            Bebes clarete
            D                                       D
La chupa sobre el hombre                     Te pones borracho
         A                                                A
Más perdido que el copón                     Te ries de la gente

B                                            B
Vas por la calle                             Vas por la calle
       G                                             G
Un dia cualquiera                            Un dia cualquiera
            D                                             D
Mosqueado con todos                          Mosqueado con todos
            A                                           A
Cagandote en Dios                            Cagandote en Dios


ESTRIBILLO                                      ESTRIBILLO

No se donde vivo
No se que hora es
No se si es mañana
O todavia ayer


No se donde vivo
Solo se que estoy
Hasta los mismos huevos
Me cago en Dios


B
Kualkier Dia
G
Kualkier Dia
D
Kualkier Dia
A
Kualkier Dia

B
Kualkier Dia
G
Kualkier Dia
D
Kualkier Dia
A       D       A
¡ Te pueden joder !










Calificar esta versión:
Aviso: Este fichero es trabajo propio de su transcriptor y representa su interpretación personal de la canción. El material contenido en esta página es para exclusivo uso privado, por lo que se prohibe su reproducción o retransmisión, así como su uso para fines comerciales.
Más versiones de Cualquier Dia, Boikot
Cualquier Día
acordes
Cualquier Dia
tablatura
Descubre más canciones de Boikot