Se Murió De Amor, Bobby Pulido (tablatura)

Autor: Anónimo | 22893 visualizaciones



Intro (sin acordes)

Llevame contigo
aunque tenga q sentir dolor
si en mi tumba yo quiero q diga
este hombre se murio de amor


           Am         G     F    G   C
e--------------------------------------|
B--------------------------------------|
G--------------------------------------|
D--------------------------------------|
A-3--2--0------3--2--------------------|
E--------------------3-----------------|

           Am         Em   F     G   C
e--------------------------------------|
B--------------------------------------|
G--------------------------------------|
D--------------------------------------|
A-3--2--0------------------------------|
E--------------------------------------|

C                 G
yo contigo fui feliz
      Am                     Em
compartiendo nuestro tierno amor
      F                 G
pero ahora q no estas aqui
           C
solo hay dolor


e---------|
B---------|
G---------|
D---------|
A----0--2-|
E--3------|

C                    G
me haces tanta falta tu
     Am             Em
necesito mucho tu calor
     F               G
soy solo un alma perdida
         C 
sin tu amor

         Am     Em
 Lle-va-me (contigo)
e------------------|
B------------------|
G------------------|
D------------------|
A--3--2--0---------|
E------------------|
        F         G      C
aunque tenga q sentir dolor

           Am                 Em
  si en mi tumba yo quiero q diga
e------------------|
B------------------|
G------------------|
D------------------|
A--3--2--0---------|
E------------------|
      F            G      C
este hombre se murio de amor

         Am     Em
 Lle-va-me (contigo)
e------------------|
B------------------|
G------------------|
D------------------|
A--3--2--0---------|
E------------------|
       F         G      C
No me dejes solo por favor

           Am                 Em
  si en mi tumba yo quiero q diga
e------------------|
B------------------|
G------------------|
D------------------|
A--3--2--0---------|
E------------------|
      F            G      C
este hombre se murio de amor


********se repite toda la cancion y despues*******

          Am         G     F    G   C
e--------------------------------------|
B--------------------------------------|
G--------------------------------------|
D--------------------------------------|
A-3--2--0------3--2--------------------|
E--------------------3-----------------|

           Am         Em   F     G   C
e--------------------------------------|
B--------------------------------------|
G--------------------------------------|
D--------------------------------------|
A-3--2--0------------------------------|
E--------------------------------------|

         Am     Em
 Lle-va-me (contigo)
e------------------|
B------------------|
G------------------|
D------------------|
A--3--2--0---------|
E------------------|
        F         G      C
aunque tenga q sentir dolor

           Am                 Em
  si en mi tumba yo quiero q diga
e------------------|
B------------------|
G------------------|
D------------------|
A--3--2--0---------|
E------------------|
      F            G      C
este hombre se murio de amor

         Am     Em
 Lle-va-me (contigo)
e------------------|
B------------------|
G------------------|
D------------------|
A--3--2--0---------|
E------------------|
       F         G      C
No me dejes solo por favor

           Am                 Em
  si en mi tumba yo quiero q diga
e------------------|
B------------------|
G------------------|
D------------------|
A--3--2--0---------|
E------------------|
      F            G      C
este hombre se murio de amor

          Am         G     F    G   C
e--------------------------------------|
B--------------------------------------|
G--------------------------------------|
D--------------------------------------|
A-3--2--0------3--2--------------------|
E--------------------3-----------------|

           Am         Em   F     G   C
e--------------------------------------|
B--------------------------------------|
G--------------------------------------|
D--------------------------------------|
A-3--2--0------------------------------|
E--------------------------------------|


Espero q les guste, si alguien quiere los arreglos
de acordeon para guitarra escribanme..

y ya saben si tienen dudas, comentarios, anecdotas,
chistes o lo q sea a mi mail jcd_007@hotmail.com

si van a usar esta tab para algun lugar avisenme
no sean ****gandallas***** y si buscan un 
guitarrista ando en busca de banda =)





Calificar esta versión:
Aviso: Este fichero es trabajo propio de su transcriptor y representa su interpretación personal de la canción. El material contenido en esta página es para exclusivo uso privado, por lo que se prohibe su reproducción o retransmisión, así como su uso para fines comerciales.
Más versiones de Se Murió De Amor, Bobby Pulido
Se Murió De Amor
acordes
Se Murió De Amor
tablatura
Descubre más canciones de Bobby Pulido