Is This Love, Bob Marley (tablatura) (ver 4)

Autor: GoNeco | 41755 visualizaciones



 1 |------0--3--0-----0-----0-3--7-3--8-7-3--8-7-3-----------|
 2 |--0-3---------0-3-----1----------------------------------|
 3 |---------------------------------------------------------|
 4 |---------------------------------------------------------|
 5 |---------------------------------------------------------|
 6 |---------------------------------------------------------|


 1 |------0--3--0-----0-----0-3--7-3--8-7-3--8-7-3-----------|
 2 |--0-3---------0-3-----1----------------------------------|
 3 |---------------------------------------------------------|
 4 |---------------------------------------------------------|
 5 |---------------------------------------------------------|
 6 |---------------------------------------------------------|





Calificar esta versión:
Aviso: Este fichero es trabajo propio de su transcriptor y representa su interpretación personal de la canción. El material contenido en esta página es para exclusivo uso privado, por lo que se prohibe su reproducción o retransmisión, así como su uso para fines comerciales.
Más versiones de Is This Love, Bob Marley
Is This Love
acordes
Is This Love
tablatura
Is This Love (ver 2)
tablatura
Is This Love (ver 3)
tablatura
Is This Love (ver 4)
tablatura
Is This Love (ver 5)
tablatura
Is This Love
armonica
Descubre más canciones de Bob Marley