No Rain, Blind Melon (tablatura)

Autor: The Pretender | 32412 visualizaciones



Intro: 
Acoustic: E E E 
Electric: (with delay) 
|---------------------------------------------------| 
|-10--10/12----------10--10/12----------10--10/12---| 
|------------9------------------9-------------------| 
|---------------------------------------------------| 
|---------------------------------------------------| 
|---------------------------------------------------| (Fig. 1... 

"oooh 
E D E D 
|-----------------------------------------------| 
|-----10-9-------------------10-9---------------| 
|-9--------11-9-7--7-9-7-9--------11-9-7--7-9-7-| 
|-----------------------------------------------| 
|-----------------------------------------------| 
|-----------------------------------------------| 

oooh 
E D E D 
|------------------------------------9h10-9---------| 
|-----10-9-------------------10-9-10--------10------| 
|-9--------11-9-7--7-9-7-9---------------------9----| 
|---------------------------------------------------| 
|---------------------------------------------------| 
|---------------------------------------------------| ...Fig. 1 ends) 


Chorus: 
E Em D Dsus4 D 
All I can say is that my life is pretty plain 
A G E E7 E E7 E 
I like watching the puddles gather rain 
|---------------------------------------------------------| 
|------9h10--9---------9h10--9----------------------------| 
|-9------------7------------------------------------------| 
|------------------------------7------------/9------------| 
|---------------------------------------------------------| 
|---------------------------------------------------------| 

E D Dsus4 D 
And all I can do is just pour some tea for two 
|--------------------------------------------| 
|--------------------------------------------| 
|-----------11^13-11p9-7-----11^13-11p9------| 
|---------------------------------------7----| 
|--------------------------------------------| 
|--------------------------------------------| 
A G E E7 E 
And speak my point of view but it`s not sane 
E 
It`s not sane (*Fig. 1 starts here) 

Verse 1: E D with *Fig. 1 x2 
I just want someone to say to me no oh oh oh 
"I`ll always be there when you wake" yeah 
You know I`d like to keep my cheeks dry today 
So stay with me and I`ll have it made. (I`ll have it made) 
|-----------------------| 
|-------10-9-10/12-10-9-| 
|-----------------------| 2nd ending 
|-----------------------| for Fig 1. 
|-----------------------| 
|-----------------------| 

Chorus: 
E D Dsus4 D 
And I don`t understand why I sleep all day 
A G5 E E7 E E7 E 
and I start to complain that there`s no rain. 
|---------------------------------------------------------| 
|------9h10--9---------9h10--9----------------------------| 
|-9------------7------------------------------------------| 
|------------------------------7------5--5-/9-------------| 
|---------------------------------------------------------| 
|---------------------------------------------------------| 

E D Dsus4 D 
and all I can do is read a book to stay awake and it 
A G E 
rips my life away but it`s a great escape 
|-------------------------------------------------------| 
|--------------------10----------------12---------------| 
|-9-------11^13r11-9--------11^13r11-9------------------| 
|-------------------------------------------------------| 
|-------------------------------------------------------| 
|-------------------------------------------------------| 

E E E 
escape escape escape 
|-----------------------------------------------------------------| 
|-10--10-10/12-------10--10/12-------10--10/12-------10--10/12----| 
|--------------9---------------9---------------9------------------| 
|-----------------------------------------------------------------| 
|-----------------------------------------------------------------| 
|-----------------------------------------------------------------| 

Solo: 
E D E D 
|-------------------------------12-9---10---9---10---9---10---9-9-----| 
|------10p9---12--9--10--9--------------------------------------9-9---| 
|-9---------9--------------9---------9--------9--------9--------------| 
|---------------------------------------------------------------------| 
|---------------------------------------------------------------------| 
|---------------------------------------------------------------------| 

E D 
|-10-9-9-12-9-9-10-9-9-12-9-9--10-9-9-12-9-9-10-9-9-12-9-9-| 
|-10-9-9-12-9-9-10-9-9-12-9-9--10-9-9-12-9-9-10-9-9-12-9-9-| 
|-------------------------------9--------------------------| 
|----------------------------------------------------------| 
|----------------------------------------------------------| 
|----------------------------------------------------------| 

E D 
|-10-9-9-10-9-9-12-9-9-10-9-9--14-9-9--12--9----9--9-| 
|--9-9-9--9-9-9--9-9-9--9-9-9---9-9-9---9--9----9--9-| 
|-----------------------------------------------9--9-| 
|-----------------------------------------------------| 
|-----------------------------------------------------| 
|-----------------------------------------------------| 

E D 
|----------------------------------------------------------| 
|--97-7--75-5--53-3--32-2--2/3-3--3/5-5--5/7-7-7/9-9---| 
|----------------------------------------------------------| 
|----------------------------------------------------------| 
|----------------------------------------------------------| 
|----------------------------------------------------------| 

E D E 
|--------9------9----10----9----12----9--9---------------------------| 
|--9h10----10-----10---------10------10-10-----9^10--7---9--7---7----| 
|----------------------------------------------9^10--7---9--X---7----| 
|------------------------------------------------------9------9------| 
|--------------------------------------------------------------------| 
|--------------------------------------------------------------------| 

D E 
|---------------7--------------7---------------------------| 
|---7--7--9^10--X------------7-----10-7----7---------------| 
|---7--7--9^10--7-------9^11------------9--7-9-7--9-7------| 
|---9-------------------------------------------------9----| 
|----------------------------------------------------------| 
|----------------------------------------------------------| 

D 
|-------------------------------| 
|-------------------------------| 
|--7-----------------7--9-7-----| 
|----9-7--9-7----7-9--------9---| 
|-------------9-----------------| 
|-------------------------------| 


Chorus: 
Acoustic strums once a bar, except last: |---x-x-x---x-x-x-| 
Electric 
All I can say is that my life is pretty plain 
You don`t like my point of view but I`m insane 
|---------------------------------------------------------| 
|------9h10-9-9-7-------9h10-9-9--------------------------| 
|-9------------------------------9------------------------| 
|-------------------------------------5--5----------------| 
|-------------------------------------------7-------------| 
|---------------------------------------------------------| 

It`s not sane It`s not sane 
Fig. 1. x2 

Repeat Verse 1. 

2nd ending: 
|------------------------------| 
|------------------------------| 
|-11^13--11^13--11^13--11^13---| 
|------------------------------| 
|------------------------------| 
|------------------------------| 

D E 
I`ll have it made (ad lib) 

Outro Solo: 
E D E D 
|---------------------------------12-9---10---9---10---9---10---9-9---| 
|-10p9---12--9---10--9---12--9----------------------------------9-9---| 
|------9-------9-------9-------9-------9--------9--------9------------| 
|---------------------------------------------------------------------| 
|---------------------------------------------------------------------| 
|---------------------------------------------------------------------| 

E D 
|-10-9-9-12-9-9-10-9-9-12-9-9--10-9-9-12-9-9-10-9-9-12-9-9-| 
|-10-9-9-12-9-9-10-9-9-12-9-9--10-9-9-12-9-9-10-9-9-12-9-9-| 
|----------------------------------------------------------| 
|----------------------------------------------------------| 
|----------------------------------------------------------| 
|----------------------------------------------------------| 

E D 
|-10-9-9-12-9-9-12-9-9-10-9-9--10-9-9--12--9----9--9-| 
|--9-9-9--9-9-9--9-9-9--9-9-9---9-9-9---9--9----9--9-| 
|-----------------------------------------------9--9-| 
|-----------------------------------------------------| 
|-----------------------------------------------------| 
|-----------------------------------------------------| 

D E 
|---------7------------------------------------------------------| 
|-------7----10-7----7-------------------------------------------| 
|--9^11-----------9----9-7--9-7----7-----------------7--9-7------| 
|-------------------------------9----9-7--9-7----7-9--------9----| 
|---------------------------------------------9------------------| 
|----------------------------------------------------------------| 

D 
|-------------------------10-12-12--------10-12-12---------------------| 
|---------------------/12-------------/12------------------------------| 
|--9-------------------------------------------------11^13-11-9--11-9--| 
|----------------------------------------------------------------------| 
|----------------------------------------------------------------------| 
|----------------------------------------------------------------------|





Calificar esta versión:
Aviso: Este fichero es trabajo propio de su transcriptor y representa su interpretación personal de la canción. El material contenido en esta página es para exclusivo uso privado, por lo que se prohibe su reproducción o retransmisión, así como su uso para fines comerciales.
Más versiones de No Rain, Blind Melon
No Rain
acordes
No Rain
tablatura
Descubre más canciones de Blind Melon