Black Sabbath, Black Sabbath (tablatura) (ver 3)

Autor: Nikkeee | 26161 visualizaciones



6------------------------------------------------------------------
5-------7----------------------------------------------------------
4----------------5---5---7---7--------__----__---------------------
3-------------------------------------54----54----54------5-7-7----
2------------------------------------------------------------------
1------------------------------------------------------------------

6-------------------------------------------------------3--5---5---
5----7--------------------------------------------------5--7---7---
4----9-----5-----5-----5----7----7---------------------------------
3----------7-----7-----7----9----9-----54---54---5_4---------------
2------------------------------------------------------------------
1------------------------------------------------------------------

Espero que les sirva :) (Ligado(_))
En La primer parte (arriba) El (__) es Corcheas:)





Comentarios del colaborador: :D

Calificar esta versión:
Aviso: Este fichero es trabajo propio de su transcriptor y representa su interpretación personal de la canción. El material contenido en esta página es para exclusivo uso privado, por lo que se prohibe su reproducción o retransmisión, así como su uso para fines comerciales.
Más versiones de Black Sabbath, Black Sabbath
Black Sabbath
tablatura
Black Sabbath (ver 2)
tablatura
Black Sabbath (ver 3)
tablatura
Descubre más canciones de Black Sabbath