Fallen Leaves, Billy Talent (tablatura)

Autor: stratobey | 33653 visualizaciones

Fallen Leaves

E |-----------------|-----------------|-----------------|-------------------|
B |-4-4-4-4-3-3-3-3-|-3-3-6-4-4-4-4-4-|-1-1-1-1---------|-1-1-1/-3-0-0-0-0--|
G |-5-0-5-0-4-0-4-0-|-4-0-0-0-3-0-3-0-|-1-0-1-0-5-5-5-5-|-------------------|
D |-----------------|-----------------|---------3-3-3-3-|-1-1-1/-3-0-0-0-0--|
A |-----------------|-----------------|-----------------|-------------------|
E |-----------------|-----------------|-----------------|-------------------|


E |-----------------|-----------------|-----------------|------------------||
B |-4-4-4-4-3-3-3-3-|-3-3-6-4-4-4-4-4-|-1-1-1-1---------|-1-1-1/-3-0-0-0-0-||
G |-5-0-5-0-4-0-4-0-|-4-0-0-0-3-0-3-0-|-1-0-1-0-5-5-5-5-|------------------||
D |-----------------|-----------------|---------3-3-3-3-|-1-1-1/-3-0-0-0-0-||
A |-----------------|-----------------|-----------------|------------------||
E |-----------------|-----------------|-----------------|------------------||


E |-3------------|----------------|---------------|------------------*|
B |-4------------|----------------|---------------|------------------*|
G |-5--5---------|----------------|---------------|------------------*|
D |-5--5-0-5-5-5-|-5-6-5-3-1--1-0-|-6--6-5-3--3-0-|-1-1-1-3-5-5-5--0-*|
A |-3--3-0-5-5-5-|-5-6-5-3-1--1-0-|-6--6-5-3--3-0-|-1-1-1-3-5-5-5--0-*|
E |------0-5-5-5-|-5-6-5-3-1--1-0-|-6--6-5-3--3-0-|-1-1-1-3-5-5-5--0-*|


E |-3----(3)-------|----------------|-3----(3)-------|--------------------|
B |-4----(4)-------|-8----(8)-------|-4----(4)-------|--8----(8)----------|
G |-5----(5)-------|-8----(8)-------|-5----(5)-------|--8----(8)----------|
D |-5----(5)-5-5-0-|-8----(8)-5-5-0-|-5----(5)-5-5-0-|--8----(8)-5-5-0----|
A |-3----(3)-5-5-0-|-6----(6)-5-5-0-|-3----(3)-5-5-0-|--6----(6)-5-5-0----|
E |----------5-5-0-|----------5-5-0-|----------5-5-0-|-----------5-5-0----|


E |-3-3-3-----------|--------------------|----------------|-----------------||
B |-4-4-4---9-9-9---|-11-11-11---4-4-4---|----------------|-----------------||
G |-5-5-5---8-8-8---|-10-10-10---3-3-3---|----------------|-----------------||
D |-5-5-5-0-6-6-6-0-|-8--8--8-0-1-1-1-0-|-6-6-6-5-3-3-3-0-|-1-1-1-3-5-5-5-0-||
A |-3-3-3-0-6-6-6-0-|-8--8--8-0-1-1-1-0-|-6-6-6-5-3-3-3-0-|-1-1-1-3-5-5-5-0-||
E |-------0-6-6-6-0-|-8--8--8-0-1-1-1-0-|-6-6-6-5-3-3-3-0-|-1-1-1-3-5-5-5-0-||


E |-3----(3)-------|----------------|-3----(3)-------|----------------|
B |-4----(4)-------|-8----(8)-------|-4----(4)-------|-8----(8)-------|
G |-5----(5)-------|-8----(8)-------|-5----(5)-------|-8----(8)-------|
D |-5----(5)-5-5-0-|-8----(8)-5-5-0-|-5----(5)-5-5-0-|-8----(8)-5-5-0-|
A |-3----(3)-5-5-0-|-6----(6)-5-5-0-|-3----(3)-5-5-0-|-6----(6)-5-5-0-|
E |----------5-5-0-|----------5-5-0-|----------5-5-0-|----------5-5-0-|


E |-3-3-3-----------|--------------------|
B |-4-4-4---9-9-9---|-11-11-11---4-4-4---|
G |-5-5-5---8-8-8---|-10-10-10---3-3-3---|
D |-5-5-5-0-6-6-6-0-|--8--8--8-0-1-1-1-0-|
A |-3-3-3-0-6-6-6-0-|--8--8--8-0-1-1-1-0-|
E |-------0-6-6-6-0-|--8--8--8-0-1-1-1-0-|







E |-----------------|-------------------------||
B |-----------------|-------------12-12-12-12-||
G |-----------------|-------------12-12-12-12-||
D |-6-6-6-6-6-6-6-6-|--9--9--9--9--9--9--9--9-||
A |-6-6-6-6-6-6-6-6-|-10-10-10-10-10-10-10-10-||
E |-6-6-6-6-6-6-6-6-|--9--9--9--9--9--9--9--9-||


E |-3-------------|----------------|---------------|-----------------|
B |-4-------------|----------------|---------------|-----------------|
G |-5--5----------|----------------|---------------|-----------------|
D |-5--5-0-5--5-5-|-5-5-3-3-1--1-0-|-6--6-5-3--3-0-|-1-1-1-3-5-5-5-0-|
A |-3--3-0-5--5-5-|-5-5-3-3-1--1-0-|-6--6-5-3--3-0-|-1-1-1-3-5-5-5-0-|
E |------0-5--5-5-|-5-5-3-3-1--1-0-|-6--6-5-3--3-0-|-1-1-1-3-5-5-5-0-|


E |-3--------------|----------------|---------------|----------------||
B |-4--------------|----------------|---------------|----------------||
G |-5--5-----------|----------------|---------------|----------------||
D |-5--5-0-5-5-5-5-|-5-5-3-3-1--1-0-|-6--6-5-3--3-0-|-1-1-1-3-5--5-0-||
A |-3--3-0-5-5-5-5-|-5-5-3-3-1--1-0-|-6--6-5-3--3-0-|-1-1-1-3-5--5-0-||
E |------0-5-5-5-5-|-5-5-3-3-1--1-0-|-6--6-5-3--3-0-|-1-1-1-3-5--5-0-||


E |-3--3-3--------|---------------|-3--3-3--------|---------------*|
B |-4--4-4--------|-8--8-8--------|-4--4-4--------|-8--8-8--------*|
G |-5--5-5--------|-8--8-8--------|-5--5-5--------|-8--8-8--------*|
D |-5--5-5--5-5-0-|-8--8-8--5-5-0-|-5--5-5--5-5-0-|-8--8-8--5-5-0-*|
A |-3--3-3--5-5-0-|-6--6-6--5-5-0-|-3--3-3--5-5-0-|-6--6-6--5-5-0-*|
E |---------5-5-0-|---------5-5-0-|---------5-5-0-|---------5-5-0-*|


E |-3----(3)-------|----------------|-3----(3)-------|------------------||
B |-4----(4)-------|-8----(8)-------|-4----(4)-------|-8----(8)---------||
G |-5----(5)-------|-8----(8)-------|-5----(5)-------|-8----(8)---------||
D |-5----(5)-5-5-0-|-8----(8)-5-5-0-|-5----(5)-5-5-0-|-8----(8)-5-5-0---||
A |-3----(3)-5-5-0-|-6----(6)-5-5-0-|-3----(3)-5-5-0-|-6----(6)-5-5-0---||
E |----------5-5-0-|----------5-5-0-|----------5-5-0-|----------5-5-0---||


E |-3-3-3-----------|--------------------|
B |-4-4-4---9-9-9---|-11-11-11---4-4-4---|
G |-5-5-5---8-8-8---|-10-10-10---3-3-3---|
D |-5-5-5-0-6-6-6-0-|--8--8--8-0-1-1-1-0-|
A |-3-3-3-0-6-6-6-0-|--8--8--8-0-1-1-1-0-|
E |-------0-6-6-6-0-|--8--8--8-0-1-1-1-0-|


E |-----------------|-------------------------||
B |-----------------|-------------12-12-12-12-||
G |-----------------|-------------12-12-12-12-||
D |-6-6-6-6-6-6-6-6-|--9--9--9--9--9--9--9--9-||
A |-6-6-6-6-6-6-6-6-|-10-10-10-10-10-10-10-10-||
E |-6-6-6-6-6-6-6-6-|--9--9--9--9--9--9--9--9-||







E |-3---------------|---------------|---------------|-------------------|
B |-4---------------|---------------|---------------|-------------------|
G |-5--5------------|---------------|---------------|-------------------|
D |-5--5-0-5--5-5-5-|-5-5-3-3-1-1-0-|-6--6-5-3--3-0-|-1-1-1-3-5-5-5-0---|
A |-3--3-0-5--5-5-5-|-5-5-3-3-1-1-0-|-6--6-5-3--3-0-|-1-1-1-3-5-5-5-0---|
E |------0-5--5-5-5-|-5-5-3-3-1-1-0-|-6--6-5-3--3-0-|-1-1-1-3-5-5-5-0---|


E |-3-------------|----------------|---------------|-----------------*|
B |-4-------------|----------------|---------------|-----------------*|
G |-5--5----------|----------------|---------------|-----------------*|
D |-5--5-0-5--5-5-|-5-3-3-3-1--1-0-|-6--6-5-3--3-0-|-1-1-1-3-5-5-5-0-*|
A |-3--3-0-5--5-5-|-5-3-3-3-1--1-0-|-6--6-5-3--3-0-|-1-1-1-3-5-5-5-0-*|
E |------0-5--5-5-|-5-3-3-3-1--1-0-|-6--6-5-3--3-0-|-1-1-1-3-5-5-5-0-*|


               ~                  ~
E |----------------|------------------|
B |--------------8-|----------------8-|
G |--5h7-8-5S7-----|--7h8-10-7b8------|
D|------------9---|--------------8---|
A|----------------|------------------|
E |----------------|------------------|


E |--------------------|----------------------|
B |-------8h9------8h9-|------8------11-13S15-|
G |-10--------8--------|-8------8h10----------|
D |----10-------10-----|---10-----------------|
A |--------------------|----------------------|
E |--------------------|----------------------|


               ~                  ~
E |----------------|--------------|--------------------|--------------------*|
B |--------------8-|------------8-|-------8h9------8h9-|------8--------11--*|
G |--5h7-8-5S7-----|--7h8-10-7b8--|-10--------8--------|-8------8S7-10------*|
D |------------9---|----------8---|----10-------10-----|---10---------------*|
A |----------------|--------------|--------------------|--------------------*|
E |----------------|--------------|--------------------|--------------------*|


E |--8----------|-3------------|--8---------------|-3---------------|
B |--9----------|-4----8-8-8-8-|--9---------------|-4-4p3---8-8-8-8-|
G |-10----------|-5----8-8-8-8-|-10---------------|-5-----5-8-8-8-8-|
D |-10----5-5---|-5----8-8-8-8-|-10---------5-5---|-5-------8-8-8-8-|
A |--8----5-5---|-3----6-8-5-6-|--8-8-10-11-5-5---|-3-------6-6-5-6-|
E |-------5-5---|--------------|------------5-5---|-----------------|


E |--8-----------------|-3---------------|
B |--9-----------------|-4-4p3---8-8-8-8-|
G |-10-----------------|-5-----5-8-8-8-8-|
D |-10---------5-5-5-5-|-5-------8-8-8-8-|
A |--8-8-10-11-5-5-5-5-|-3-------6-6-5-6-|
E |------------5-5-5-5-|-----------------|





E |-----------------|-------------------------*|
B |-----------------|-------------12-12-12-12-*|
G |-----------------|-------------12-12-12-12-*|
D |-6-6-6-6-6-6-6-6-|--9--9--9--9--9--9--9--9-*|
A |-6-6-6-6-6-6-6-6-|-10-10-10-10-10-10-10-10-*|
E |-6-6-6-6-6-6-6-6-|--9--9--9--9--9--9--9--9-*|


E |-----------------|-----------------|-----------------|------------------|
B |-4-4-4-4-3-3-3-3-|-3-3-6-4-4-4-4-4-|-1-1-1-1---------|-1-1-1/-3-0-0-0-0-|
G |-5-0-5-0-4-0-4-0-|-4-0-0-0-3-0-3-0-|-1-0-1-0-5-5-5-5-|------------------|
D |-----------------|-----------------|---------3-3-3-3-|-1-1-1/-3-0-0-0-0-|
A |-----------------|-----------------|-----------------|------------------|
E |-----------------|-----------------|-----------------|------------------|


E |-----------------|-----------------|-----------------|------------------||
B |-4-4-4-4-3-3-3-3-|-3-3-6-4-4-4-4-4-|-1-1-1-1---------|-1-1-1/-3-0-0-0-0-||
G |-5-0-5-0-4-0-4-0-|-4-0-0-0-3-0-3-0-|-1-0-1-0-5-5-5-5-|------------------||
D |-----------------|-----------------|---------3-3-3-3-|-1-1-1/-3-0-0-0-0-||
A |-----------------|-----------------|-----------------|------------------||
E |-----------------|-----------------|-----------------|------------------||


E |-3-------------|---------------|---------------|------------------|
B |-4-------------|---------------|---------------|------------------|
G |-5--5----------|---------------|---------------|------------------|
D |-5--5-0-5--5-5-|-5-5-3-3-1-1-0-|-6--6-5-3--3-0-|-1-1-1-3-5-5-5-0--|
A |-3--3-0-5--5-5-|-5-5-3-3-1-1-0-|-6--6-5-3--3-0-|-1-1-1-3-5-5-5-0--|
E |------0-5--5-5-|-5-5-3-3-1-1-0-|-6--6-5-3--3-0-|-1-1-1-3-5-5-5-0--|


E |-3-------------|----------------|---------------|-----------------|
B |-4-------------|----------------|---------------|-----------------|
G |-5--5----------|----------------|---------------|-----------------|
D |-5--5-0-5--5-5-|-5-5-3-3-1--1-0-|-6--6-5-3--3-0-|-1-1-1-3-5-5-5-0-|
A |-3--3-0-5--5-5-|-5-5-3-3-1--1-0-|-6--6-5-3--3-0-|-1-1-1-3-5-5-5-0-|
E |------0-5--5-5-|-5-5-3-3-1--1-0-|-6--6-5-3--3-0-|-1-1-1-3-5-5-5-0-|


E |-3-------------|----------------|---------------|-----------------|
B |-4-------------|----------------|---------------|-----------------|
G |-5--5----------|----------------|---------------|-----------------|
D |-5--5-0-5--5-5-|-5-6-5-3-1--1-0-|-6--6-5-3--3-0-|-1-1-1-3-5-5-5-0-|
A |-3--3-0-5--5-5-|-5-6-5-3-1--1-0-|-6--6-5-3--3-0-|-1-1-1-3-5-5-5-0-|
E |------0-5--5-5-|-5-6-5-3-1--1-0-|-6--6-5-3--3-0-|-1-1-1-3-5-5-5-0-|


                                                               H.=H
E |-3-------------|----------------|---------------|-----------------|
B |-4-------------|----------------|---------------|-----------------|
G |-5--5----------|----------------|---------------|-----------------|
D |-5--5-0-5--5-5-|-5-6-5-3-1--1-0-|-6--6-5-3--3-0-|-1-1-1-3-5-5-5-0-|
A |-3--3-0-5--5-5-|-5-6-5-3-1--1-0-|-6--6-5-3--3-0-|-1-1-1-3-5-5-5-0-|
E |------0-5--5-5-|-5-6-5-3-1--1-0-|-6--6-5-3--3-0-|-1-1-1-3-5-5-5-0-|


 



 >
E |-3--------*|----|
B |-4--------*|----|
G |-5--------*|----|
D |-5--------*|----|
A |-3--------*|----|
E |----------*|----|


Edit by stratobey tabs

Comentarios del colaborador: Disfrutadla esta es buena ^^

Calificar esta versión:
Aviso: Este fichero es trabajo propio de su transcriptor y representa su interpretación personal de la canción. El material contenido en esta página es para exclusivo uso privado, por lo que se prohibe su reproducción o retransmisión, así como su uso para fines comerciales.
Más versiones de Fallen Leaves, Billy Talent
Fallen Leaves
tablatura
Fallen Leaves (ver 2)
tablatura
Descubre más canciones de Billy Talent