Bella Traicion, Belinda (acordes)

Autor: lucho_jorge11 | 35457 visualizaciones



Esta cacion va para mis "queridas primas" de lesma Jujuy

ACORDES:> Re  La  Sim  Sol

Intro punteo:

E||--------------------------------------------------||
B||--------------------------------------------------||
G||--------------------------------------------------||
D||-4-4-4-4-4--2--0--4-4-4-4--5-5-5--2-2-2-2-2--0----||
A||------------------------------------------------4-||
E||--------------------------------------------------||

E||--------------------------------------------------||
B||--------------------------------------------------||
G||--------------------------------------------------||
D||-2-2-2-2------------------------------------------||
A||---------5-5-5-5-5--4--2--5-5-5--7--5--7---(9)----||
E||--------------------------------------------------||

En esta parte repite lo mismo, pro abajo, no se si me entienden, chequeen...

Intro 2 : Re, La, Sim, Sol x 1

E||-2-2-2-2-2--0-----2-2-2-2--3-3-3--0-0-0-0-0-------||
B||---------------2-----------------------------3-2--||
G||--------------------------------------------------||
D||--------------------------------------------------||
A||--------------------------------------------------||
E||--------------------------------------------------||

E||-0-0-0-0--3-3-3-----------------------------------||
B||----------------3-3-3-3-3--2--0--3-3-3--5-3-5--(7)||
G||--------------------------------------------------||
D||--------------------------------------------------||
A||--------------------------------------------------||
E||--------------------------------------------------||



Re                       La
Ya no quiero verlo otra vez,
                        Sim
mi alma esta partida en dos por ti ,
                          Sol
no me importa el fuego en el que ardo hoy,
Re                           La
dicen que estoy enferma de amor,
                            Sim
que me levanto y vuelvo a caer por ti
                    Sol                Re(Re5)
cada vez que te apareces frente a mi

=CORO=

Re (Re5)  La(La5)             Sim(si5)
        porque sin ti no hay camino

      Sol(Sol5)     Re (Re5)
ni destino estoy perdida,

La (La5)              Sim(si5)
porque sin ti no me importan los

  Sol(Sol5)    Re(Re5)
minutos ni los dias,

La(La5)                 Sim (si5)   Sol(sol5)    Sim(Si5)
porque sin ti no hay presente ni    futuro salvame,

Sol(sol5)           Sim(Si5)  Sol(sol5)      Re   La  Sim  Sol
de esta bella traicion        que mató mi razon



Re                      La
Perdona si me olvido de ti ,
                         Sim
lo siento si agote la ilusion,
                   Sol
no me importa el juramento que te di,
Re                 La
me dicen que todo termino,
                     Sim
que solo eres una cancion de ayer,
                     Sol            Re(Re5)
un suspiro que en el aire se quedo





=Coro=

Re (Re5)  La(La5)             Sim(si5)
        porque sin ti no hay camino

      Sol(Sol5)     Re (Re5)
ni destino estoy perdida,

La (La5)              Sim(si5)
porque sin ti no me importan los

  Sol(Sol5)    Re(Re5)
minutos ni los dias,

La(La5)                 Sim (si5)   Sol(sol5)    Sim(Si5)
porque sin ti no hay presente ni    futuro salvame,

Sol(sol5)           Sim(Si5)  Sol(sol5)      Sim(Si5)
de esta bella traicion        que mató mi razon



Sim(si5)   La(la5)       Sol(sol5)    Sim(si5)
Donde estaras cuando mis labios te busquen
            La(la5)         Sol(sol5)                  Re
y donde estara el sueño tan dulce que era de los dos?
La                    Sim
Fuiste mi bella traicion

Sol(Sol5)             Re(Re5)
Fuiste mi bella traiciooon!!


=CORO=

Re (Re5)  La(La5)             Sim(si5)
        porque sin ti no hay camino

      Sol(Sol5)     Re (Re5)
ni destino estoy perdida,

La(La5)              Sim(si5)
porque sin ti no me importan los

  Sol(Sol5)    Re(Re5)
minutos ni los dias,

La(La5)                 Sim (si5)   Sol(sol5)    Re (Re5)
porque sin ti no hay presente ni un futuro salvame,

La(La5)           Sim(Si5)  Sol(Sol5)         Sim(Si5)
de esta bella traicion      de esta bella traicion

Sol(Sol5)           Sim(Si5)
de esta bella traicioon

    Sol(Sol5)  Sim(Si5)     Sol(Sol5)     Re(re5)
que mato mi    razon        que mato mi razon

ESTA ES UNA MUY LINDA CANCION PARA MAS CONTACTARME A
lucho_jorge11@hotmail.com
 





Calificar esta versión:
Aviso: Este fichero es trabajo propio de su transcriptor y representa su interpretación personal de la canción. El material contenido en esta página es para exclusivo uso privado, por lo que se prohibe su reproducción o retransmisión, así como su uso para fines comerciales.
Más versiones de Bella Traicion, Belinda
Bella Traicion
acordes
Bella Traicion (ver 2)
acordes
Bella Traición (ver 3)
acordes
Descubre más canciones de Belinda