Rosa Pastel, Belanova (tablatura)

Autor: jcc666 | 16559 visualizaciones



Hola a todos , aquí esta Rosa pastel de Belanova en el acústico que hicieron en la Papaya ,
también incluyo el intro y los solos de la versión en estudio los acordes son los mismos .

Nota - Los acordes que están entre [ ] se realiza su respectivo
       arpegio como se muestra un poco mas abajo .

     - Los (••••) después de una nota en el tab significa que sigue sonando .

Acordes :

        E A D G B e
Bm    = x 2 4 4 3 2
F#m   = 2 4 4 2 2 2
G     = 3 5 5 4 3 3
D     = x 5 7 7 7 5
A     = 5 7 7 6 5 5


  Arpegio :

  [Bm]          [F#m]         [G]           [D]       [A]
e ---------  e ----------  e -----------  e------  e ------
B -------3-  B --------2-  B ---------3-  B------  B ------
G -----4---  G ------2---  G -------4---  G----7-  G ----6-
D ---4-----  D ----4-----  D -----5-----  D---7--  D ---7--
A -2-------  A ----------  A -----------  A--5---  A ------
E ---------  E --2-------  E --3--------  E------  E --5---


Intro :

  Bm        F#m  G         D  A      Bm        F#m G         D  A
e -----------------------------5-5-------------------------------5--
B ----3-3h5-3-3------3-3h5-3-3--3-3------3-3h5-3-3-----3-3h5-3-3--3-
G -4--------------4-------------------4-------------4---------------
D ------------------------------------------------------------------
A ------------------------------------------------------------------
E ------------------------------------------------------------------


Verso 1 :

Bm            F#m         G
Sí , yo quería ser esa mujer
           D     A
La madre de tus hijos
Bm            F#m            G
Y juntos caminar hacia el altar
           D       A
Directo hacia la muerte

Bm      F#m         G
Y al final , ni hablar
             D    A
Los dos nos destruimos
Bm      F#m       G
Y al final , qué tal
            D      A
Tú y yo ya no existimos

Coro :

Bm              F#m       G
No , no quiero ser esa mujer
           D       A
Ella se fue a un abismo y
Bm              F#m           G
Tú , no eres aquel que prometió
          D    A
Sería mi superhéroe 

Bm               F#m
Y qué , todo acabó
          G             D      A
No queda más , seremos dos extraños
Bm           F#m           G
Yo te olvidaré , me olvidarás
       D  A
Hasta nunca


Solo 1 :

  Bm      F#m   G       D   A
e ------5-2---2------------------
B --0•••••••••••0•••0-2/3--------
G -------------------------------
D -------------------------------
A -------------------------------
E -------------------------------


Verso 2 :

[Bm]       [F#m]    [G]
Y dónde quedó ese botón
            [D]  [A]
Que lleva a la felicidad
[Bm]        [F#m]      [G]
Luna de miel , rosa pastel ,
          [D]  [A]
Clichés y tonterías

Bm      F#m         G
Y al final , ni hablar
             D    A
Los dos nos destruimos
Bm      F#m       G
Y al final , qué tal
            D      A
Tú y yo ya no existimos


Coro :

Bm              F#m       G
No , no quiero ser esa mujer
           D       A
Ella se fue a un abismo y
Bm              F#m           G
Tú , no eres aquel que prometió
          D    A
Sería mi superhéroe 

Bm               F#m
Y qué , todo acabó
          G             D      A
No queda más , seremos dos extraños
Bm           F#m           G
Yo te olvidaré , me olvidarás
       D  A
Hasta nunca


Solo 2 :

  Bm      F#m   G       D  A    Bm    F#m   G       D  A
e ------5-2---2---------------------5-2---2---------------
B --0•••••••••••0•••0-2/3-3-----0•••••••••••0•••0-2/3-----
G --------------------------------------------------------
D --------------------------------------------------------
A --------------------------------------------------------
E --------------------------------------------------------

Bm    F#m  G     D   A
Ta tata tata ta taratata
Bm    F#m  G     D  A-A-A
ta tata tata ta ta ta



Rosa Pastel

Versión en estudio :


Intro :

  Bm          F#m    G        D  A    Bm        F#m    G       D  A
e ------------------------------2-2-----------------------------------
B -----3-5/3------------3-5/3------------3-5/3------------3-5/3-------
G -4-4---------4-4----4----------------4---------4-4----4-------4-2---
D --------------------------------------------------------------------
A --------------------------------------------------------------------
E --------------------------------------------------------------------


Solo 1 :

    Bm    F#m   G       D  A
e ------5-2---5------------0-
B --0•••••••••••0•••••2/3-3--
G ---------------------------
D ---------------------------
A ---------------------------
E ---------------------------


Solo 2 :

    Bm    F#m   G       D  A    Bm    F#m   G       D  A
e ------5-2---5------------0--------5-2---5---------------
B --0•••••••••••0•••••2/3-3-----0•••••••••••0•••••2/3-3---
G --------------------------------------------------------
D --------------------------------------------------------
A --------------------------------------------------------
E --------------------------------------------------------

                                                       FIN

Cualquier cosa a mi email .





Calificar esta versión:
Aviso: Este fichero es trabajo propio de su transcriptor y representa su interpretación personal de la canción. El material contenido en esta página es para exclusivo uso privado, por lo que se prohibe su reproducción o retransmisión, así como su uso para fines comerciales.
Más versiones de Rosa Pastel, Belanova
Rosa Pastel
acordes
Rosa Pastel
tablatura
Descubre más canciones de Belanova