Para Elisa, Beethoven (tablatura) (ver 5)

Autor: pumasfan5 | 43413 visualizaciones

E|12-11-12-11-12-7-10-8-5-----5-7-----7-8--0
B|--------------------------5-------9-------
G|------------------------5-------9---------
D|------------------------------------------
A|------------------------------------------
E|------------------------------------------

E|12-11-12-11-12-7-10-8-5-----5-7-----0-8-7-5
B|--------------------------5----------------
G|------------------------5------------------
D|-------------------------------------------
A|-------------------------------------------
E|-------------------------------------------

E|12-11-12-11-12-7-10-8-5-----5-7-----7-8--0
B|--------------------------5-------9-------
G|------------------------5-------9---------
D|------------------------------------------
A|------------------------------------------
E|------------------------------------------

E|12-11-12-11-12-7-10-8-5-----5-7-----0-8-7-5
B|--------------------------5----------------
G|------------------------5------------------
D|-------------------------------------------
A|-------------------------------------------
E|-------------------------------------------

E|7-8-10-12----13-12-10----12-10-8--0-10-8-7-0-0-12-0-12-12-11
B|----------12----------10------------------------------------
G|------------------------------------------------------------
D|------------------------------------------------------------
A|------------------------------------------------------------

E|12-11-12-11-12-11-12-11-12-11-12-7-10-8-5-----5-7-----7-8--0
B|--------------------------------------------5-------9-------
G|------------------------------------------5-------9---------
D|------------------------------------------------------------
A|------------------------------------------------------------
E|------------------------------------------------------------
E|------------------------------------------------------------

E|12-11-12-11-12-7-10-8-5-----5-7-----0-8-7-5
B|--------------------------5----------------
G|------------------------5------------------
D|-------------------------------------------
A|-------------------------------------------
E|-------------------------------------------


E|7-8-10-12----13-12-10----12-10-8--0-10-8-7-0-0-12-0-12-12-11
B|----------12----------10------------------------------------
G|------------------------------------------------------------
D|------------------------------------------------------------
A|------------------------------------------------------------

E|12-11-12-11-12-11-12-11-12-11-12-7-10-8-5-----5-7-----7-8--0
B|--------------------------------------------5-------9-------
G|------------------------------------------5-------9---------
D|------------------------------------------------------------
A|------------------------------------------------------------
E|------------------------------------------------------------
E|------------------------------------------------------------


E|12-11-12-11-12-7-10-8-5-----5-7-----0-8-7-5
B|--------------------------5----------------
G|------------------------5------------------
D|-------------------------------------------
A|-------------------------------------------
E|-------------------------------------------

Comentarios del colaborador: Espero que les haya gustado, suerte!!!

Calificar esta versión:
Aviso: Este fichero es trabajo propio de su transcriptor y representa su interpretación personal de la canción. El material contenido en esta página es para exclusivo uso privado, por lo que se prohibe su reproducción o retransmisión, así como su uso para fines comerciales.
Más versiones de Para Elisa, Beethoven
Para Elisa
tablatura
Para Elisa (ver 2)
tablatura
Para Elisa (ver 3)
tablatura
Para Elisa (ver 4)
tablatura
Para Elisa (ver 5)
tablatura
Descubre más canciones de Beethoven