Himno De La Alegria, Beethoven (tablatura)

Autor: jYLlOve | 46317 visualizaciones

e|---------------------------|
b|5-5-6-8-8-6-5-------5-5----|
g|-------------7-5-5-7---7-7-|
d|---------------------------|
a|---------------------------|
e|---------------------------|


e|---------------------------|
b|5-5-6-8-8-6-5-------5------|
g|-------------7-5-5-7--7-5-5|
d|---------------------------|
a|---------------------------|
e|---------------------------|


e|---------------------------|
b|--5---5-6-5---5-6-5--------|
g|7--5-7-----5-7-----7-5-7---|
d|------------------------5--|
a|---------------------------|
e|---------------------------|
Calificar esta versión:
Aviso: Este fichero es trabajo propio de su transcriptor y representa su interpretación personal de la canción. El material contenido en esta página es para exclusivo uso privado, por lo que se prohibe su reproducción o retransmisión, así como su uso para fines comerciales.
Más versiones de Himno De La Alegria, Beethoven
Himno De La Alegria
tablatura
Himno De La Alegria (ver 2)
tablatura
Himno De La Alegria (ver 3)
tablatura
Himno De La Alegria
armonica
Descubre más canciones de Beethoven