Fur Elise, Beethoven (acordes)

Autor: ZIDANE65 | 37514 visualizaciones

e|--12-11-12-11-12----10-8---------5-7-------4-7-8-----|
B|-----------------12----------1-5---------5-----------|
G|------------------------[2]---------[1]---------[2]--|
D|-----------------------[2]---------------------[2]---|
A|----------------------[0]----------[2]--------[0]----|
E|----------------------------------[0]----------------|

e|--12-11-12-11-12----10-8---------5-7-------8--7--5-----|
B|-----------------12----------1-5---------5-------------|
G|------------------------[2]---------[1]-----------[2]--|
D|-----------------------[2]-----------------------[2]---|
A|----------------------[0]----------[2]----------[0]----|
E|----------------------------------[0]------------------|

e|--5--7-8-10-12--5-13-12-10--3-12-10-8--1-10-8-7--|

e|--0-12-0-12-12-24--|
Calificar esta versión:
Aviso: Este fichero es trabajo propio de su transcriptor y representa su interpretación personal de la canción. El material contenido en esta página es para exclusivo uso privado, por lo que se prohibe su reproducción o retransmisión, así como su uso para fines comerciales.
Más versiones de Fur Elise, Beethoven
Fur Elise
acordes
Fur Elise
teclado
Fur Elise (ver 2)
teclado
Descubre más canciones de Beethoven