Cancion De La Alegria, Beethoven (tablatura)

Autor: turulete | 39834 visualizaciones

|2-2-3-5-5-3-2--------2-2-----|2-2-3-5-5-3-2---------2-------|
|--------------5-3-3-5----5-5-|--------------5-3-3-5---5-3-3-|
|-----------------------------|------------------------------|
|-----------------------------|------------------------------|
|-----------------------------|------------------------------|
|-----------------------------|------------------------------|

traten de hacerlo tranquilo por que no es rapido


|--2--|--2-3-2---|--2-3-2---------|
|5---3|5-------3-|5-------5-3-5---|
|-----|----------|--------------2-|
|-----|----------|----------------|
|-----|----------|----------------|
|-----|----------|----------------|

|2-2-3-5-5-3-2---------2-------|
|--------------5-3-3-5---5-3-3-|
|------------------------------|
|------------------------------|
|------------------------------|
|------------------------------|
Calificar esta versión:
Aviso: Este fichero es trabajo propio de su transcriptor y representa su interpretación personal de la canción. El material contenido en esta página es para exclusivo uso privado, por lo que se prohibe su reproducción o retransmisión, así como su uso para fines comerciales.
Más versiones de Cancion De La Alegria, Beethoven
Cancion De La Alegria
tablatura
Cancion De La Alegria (ver 2)
tablatura
Descubre más canciones de Beethoven