Veneno En Las Venas, Bbs Paranoicos (tablatura)

Autor: Anónimo | 27113 visualizaciones



intro

1 -----------------------------------------------------------------------------------------
2 -----------------------------------------------------------------------------------------
3 --------------7-7-7-7-------------------------7--7-7-7--7-------------------------
4 --5-5-5-5--7-7-7-7--8--7-----5-5-5-5--7-7-7-7--7--7-----x3-------------
5 --5-5-5-5--5-5-5-5--8--7-----5-5-5-5--5-5-5-5--6--7----------------------
6 --3-3-3-3--------------6--5-----3-3-3-3------------------6----------------------

1 -----------------------------------------------------------------------------------------
2 -----------------------------------------------------------------------------------------
3 ---------5-5--6-6---77-7-7--------------------------------------------------------
4 --7-7--5-5--6--6--7-7-7-7--------------------------------------------------------
5 --7-7--3-3--4--5--6-6-6-6--------------------------------------------------------
6 --6-6-----------------------------------------------------------------------------------

verso

1 -------------------------------------------------------------------------------------------
2 -------------------------------------------------------------------------------------------
3 -------------------------------7-7-7--8-8-8---------------------------------8-----10-10-10-
4 --4-4-4--8-8-8--3-3-3--7-7-7--8-8-8----8-8-8--7-7-7--5-5--5--8-8--10-10-10---x2------------
5 --4-4-4--8-8-8--3-3-3--5-5-5--6-6-6----8-8-8--7-7-7--5-5--5--6-8--8---8---8----------------
6 --3-3-3--6-6-6--1-1-1-----------------------6-6-6--5-5-5--3-3--3-----6---------------------

1 --------------------------------------------------------------------------------------
2 --------------------------------------------------------------------------------------
3 ------------8-8-8-----------7-7-7------------------------------------------------
4 --5-5-5--8-8-8--8-8-8--7-7-7--5-5-5--7-7-7-----------------------------
5 --5-5-5--6-6-6--8-8-8--5-5-5--5-5-5--7-7-7-----------------------------
6 --3-3-3-----------6-6-6------------6-6-6--5-5-5-----------------------------

coro

1 ---------------------------------------------------------------------------------------
2 ---------------------------------------------------------------------------------------
3 --8-8-8-----------------------------------------------------------------------------
4 --8-8-8--5-5-5--8-8-8--3-3-3-------------------------------------------------
5 --6-6-6--5-5-5--8-8-8--3-3-3-------------------------------------------------
6 -----------3-3-3--6-6-6--1-1-1--------------------------------------------------

final

1 -----------------------------------------------------------------------------------------
2 -----------------------------------------------------------------------------------------
3 --7-7-7--8-8-8--12-12-12---10-10-10---------------------------------------
4 --7-7-7--8-8-8--12-12-12---10-10-10---8-8-8--7-7-7---5--5----------
5 --5-5-5--6-6-6--10-10-10---8---8---8----8-8-8--7-7-7---5--5-----------
6 ----------------------------------------------------6-6-6--5-5-5---3--3-----------

este tema es dificil de sacar porke son muchos reef pero una
vez aprendido se va a hacer mucho mas facil, es uno de los mejores temas
ke tienen los bbs paranoicos.
nota: no manden tablaturas al lote y malas solo para ganar puntos, aganlo por amor
a la musica ( no sean poseros)...esta tabs se la dedico a mi polola maria jose ke me
ha dado todo su apoyo. a ella le dedico todas mis tabs

Fuente original: LaCuerda
Colaborador original: christhian aracena [tetosk84life@hotmail.com]





Calificar esta versión:
Aviso: Este fichero es trabajo propio de su transcriptor y representa su interpretación personal de la canción. El material contenido en esta página es para exclusivo uso privado, por lo que se prohibe su reproducción o retransmisión, así como su uso para fines comerciales.
Más versiones de Veneno En Las Venas, Bbs Paranoicos
Veneno En Las Venas
acordes
Veneno En Las Venas
tablatura
Descubre más canciones de Bbs Paranoicos