Quiero Irme De Aqui, Bbs Paranoicos (tablatura)

Autor: Anónimo | 42548 visualizaciones



Este es el punteo que faltaba, se repite dos veces parece.

e|-----------------|----------------|----------------
b|--7-8------------|-7-8------------|-7-8-10-8-7-----
g|------9~-9-9-9-9-|-----9~-9-9-9-9-|------------7-7-
d|-----------------|----------------|----------------
a|-----------------|----------------|----------------
e|-----------------|----------------|----------------

e|-----------------|----------------|----------------
b|--7-8------------|-7-8------------|-7-8-10-8-7~----
g|------9~-9-9-9-9-|-----9~-9-9-9-9-|----------------
d|-----------------|----------------|----------------
a|-----------------|----------------|----------------
e|-----------------|----------------|----------------

 ~ : dejar sonando un poco la nota.

Victor Gonzalez, nohaycuraspobres@hotmail.com

Fuente original: LaCuerda
Colaborador original: Victor Gonzalez [nohaycuraspobres@hotmail.com]





Calificar esta versión:
Aviso: Este fichero es trabajo propio de su transcriptor y representa su interpretación personal de la canción. El material contenido en esta página es para exclusivo uso privado, por lo que se prohibe su reproducción o retransmisión, así como su uso para fines comerciales.
Más versiones de Quiero Irme De Aqui, Bbs Paranoicos
Quiero Irme De Aqui
acordes
Quiero Irme De Aqui
tablatura
Descubre más canciones de Bbs Paranoicos