Piensa En Algo, Bbs Paranoicos (tablatura)

Autor: hanslash | 14681 visualizaciones




 BBS PARANOICOS PIENSA EN ALGO 

-0-------------------------------------------------------------------------
-0-------------------------------------------------------------------------
-0-------------------------------------------------------------------------
-0--777--77-77-7777---33--77-77-7777---33--55-55-5555---33--77-77-7777---33
-0--777--77-77-7777---33--77-77-7777---33--55-55-5555---33--77-77-7777---33
-0--555--55-55-5555---11--55-55-5555---11--33-33-3333---11--55-55-5555---11


-----------------------------------------------------------------
-----------------------------------------------------------------
----------------------------------------------------------------- 
-------7---77--3333----7--77-3333----5-5-555-3333---7-7-777--3333
-------7---77--3333----7--77-3333----5-5-555-3333---7-7-777--3333
-----555--555--1111--555-555-1111--333333333-1111-555555555--1111
    {   pm   }       {  pm  }      {   pm  }      {  pm   }

todo esto es el intro
-----------------------------------------------------------------
--------------------1-------------------------------------1------
---------------------2-------------------------------------2-----
-77777----77777---3---3----------------77777----77777---3---3----
-77777----77777---3----3---------------77777----77777---3----3---
-55555----55555---1--------------------55555----55555---1--------

ya se que todo a salido mal   que es lo peor que nos pudo pasar


-----------------------------------------------------------------------
------------------------------------------------------------------------
-----------------------7-77-777--------------------------------555--777-
-7777777777777777------7-77-777----7777777777777777--55555555--555--777-
-7777777777777777----555555-555----7777777777777777--55555555--333--555-
-5555555555555555-------------------5555555555555555--33333333-----------
                    (    pm   )
pero piensa en algo trata           trata algo puedes ayudar



-----------------------------------------------------------------
--------------------1-------------------------------------1------
---------------------2-------------------------------------2-----
-77777----77777---3---3----------------77777----77777---3---3----
-77777----77777---3----3---------------77777----77777---3----3---
-55555----55555---1--------------------55555----55555---1--------


realmente nunca lo pasaste mal      no isiste nada mas que esperar

------------------------------------------------------------------------
------------------------------------------------------------------------
-----------------------7-77-777-----------------------------------------
-7777777777777777------7-77-777----7777777777777777--55555555555555555--
-7777777777777777----555555-555----7777777777777777--55555555555555555--
-5555555555555555------------------5555555555555555--33333333333333333--
                     (    pm   )
que yo isiera algo   casi todo      y ahora queres mas    no iba a hacer asi 

-----------------------------------------------------------------------
-----------------------------------------------------------------------
-----------------------------------------------------------------------
-3-3333-----7----5555555----3-3333-----7-----5555555----3-3333-----7---
-3-3333-----7----5555555----3-3333-----7-----5555555----3-3333-----7---
-1-1111-----5----3333333----1-1111-----5-----3333333----1-1111-----5---
                                                                       
   fue   mui     dificil      pero no para ti    fue mui dificil que no

----------------------------------------
----------------------------------------
----------------------------------------
--5555555-------------------------------
--5555555-------------------------------
--3333333---1111111111111-3333333333333-
            {         pm              }

 iciste mas mas que abrir las piernas i ya esta


------------------------------------------------------------------------
------------------------------------------------------------------------
-5555555----------------------5555555----------------------5555555------
-5555555--5-3-----------------5555555--5-3-----------------5555555--5-3-
-3333333--5-3-----------------3333333--5-3-----------------3333333--5-3-
----------3-1-11-111-11-111------------3-1-11-111-11-111------------3-1-
              {    pm     }                (  pm       )



-------------------------------------
-------------------------------------            
-------------------------------------
-----------------5------5-5------5---
-----------------5------5-5------5---
11-111-11-111----3-3333-3-3-3333-3---
{    pm     }      {pm}     {pm}


                                     gtr 1
----------------------------------------------------------
----------------------------------------------------------
-55555555555555555---------------------55555555555555555--
-55555555555555555--33333333333333333--55555555555555555--
-33333333333333333--33333333333333333--33333333333333333--
--------------------11111111111111111---------------------
 
    dime que hisiste tu                  dime que perdiste tu



----------------------------------------------------------
----------------------------------------------------------
----------------------------------------------------------
-33333333333333333--55555555555555555--77777777777777777--
-33333333333333333--55555555555555555--77777777777777777--
-11111111111111111--33333333333333333--55555555555555555--
                       cuantas veces te recorde  

                gtr 1
----------------------------------
----------------------------------
----------------------------------
----------------------------------
----------------------------------
-111111111111111-333333333333333--
 {              pm             }
     que en esto somos dos 


   la misma parte en la guitarra dos es asi 

-------------------------------------------------
-------------------------------------------------
-------------------------------------------------
-9-7-9-10-9-7------------------------------------
---------------7-8-9-8-7-8-9-8-7-9-8-7-9--rapido-
-------------------------------------------------
 dime que hisiste tu                           

-----------------------------------------------------------------------
-----------------------------------------------------------------------
--------------------------------------------9--9--9--9--10--10--10--10-
-9-7-9-10-9-7-----------------------------9--9--9--9--10--10--10--10---
--------------7-8-9-9/10-9-8-7---10-9-8--------------------------------
-----------------------------------------------------------------------
                                          (      pm                   )
dime que perdiste tu   cuantas veces te recorde   que en esto somos dos 

           

           solo
----------------------------------------------------------------
-10/12-14--10/12-14--10/12-14--10/12-14--12-11-10---------------
---------------------------------------------------12--10-11-12-
----------------------------------------------------------------
----------------------------------------------------------------
----------------------------------------------------------------


--------------------------------------------------------
10-12-11-10--------------10-12-11-10--------------------
-------------12--10-11-12------------12-11-10-----------
-----------------------------------------------12-11-10-
--------------------------------------------------------
--------------------------------------------------------



--------------------------------------------------------------------
------------------------------------------------13b-13b-13-11-13b---
-------------------------10-11-12b-12-12b-12-10---------------------
----------------10-11-12--------------------------------------------
-12-11-10-11-12-----------------------------------------------------
--------------------------------------------------------------------

  todo esto es el solo


 la otra guitarra mientras esta el solo ase esto
----------------------------------------------------------------
----------------------------------------------------------------
----------------------------------------------------------------
-777777777777777-333333333333333-77777777777777-55555555555555--
-777777777777777-333333333333333-77777777777777-55555555555555--
-555555555555555-111111111111111-55555555555555-33333333333333--


----------------------------------------------------------------
----------------------------------------------------------------
----------------------------------------------------------------
-777777777777777-333333333333333-77777777777777-55555555555555--
-777777777777777-333333333333333-77777777777777-55555555555555--
-555555555555555-111111111111111-55555555555555-33333333333333--
 pero `piensa en algo trata algo puedes ayudar  (no iva aser asi)


-----------------------------------------------------------------
-----------------------------------------------------------------
-----------------------------------------------------------------
-3-3333-----7----5555555----3-3333-----7-----5555555----3-3333---
-3-3333-----7----5555555----3-3333-----7-----5555555----3-3333---
-1-1111-----5----3333333----1-1111-----5-----3333333----1-1111---
                                                                 
   fue   mui     dificil      pero no para ti    fue mui dificil 

----------------------------------------------
----------------------------------------------
----------------------------------------------
--7-----5555555-------------------------------
--7-----5555555-------------------------------
--5-----3333333---1111111111111-3333333333333-
                  {         pm              }
que no iciste mas mas que abrir las piernas i ya esta


                        the end 


 





Comentarios del colaborador: bueno este es todo el tema se escucha super bien espero les guste ice lo mejor que pude xau

Calificar esta versión:
Aviso: Este fichero es trabajo propio de su transcriptor y representa su interpretación personal de la canción. El material contenido en esta página es para exclusivo uso privado, por lo que se prohibe su reproducción o retransmisión, así como su uso para fines comerciales.
Más versiones de Piensa En Algo, Bbs Paranoicos
Piensa En Algo
acordes
Piensa En Algo
tablatura
Descubre más canciones de Bbs Paranoicos