Siempre Estas Alli, Baron Rojo (bajo)

Autor: pochillo | 25294 visualizaciones

dudas, preguntas o correcciones escriban a mi mail.

G||--------------------|---------------------|--------------------|
D||--------------------|---------------------|--------------------|
A||--------------------|---------------------|--3-----------------|
E||--1--------------0--|--1----1--------1/---|-----------------3--|



--------------------|--------------------|---------------------|
--------------------|--------------------|--5--------7----8----|
--3--------3/-------|--------------------|---------------------|
--------------------|--3--------------3--|---------------------|



--------------------|-----------------2----|--------------------|
--0-----------------|--0------2--3---------|--------------------|
-----------------0--|----------------------|-----------------3--|
--------------------|----------------------|--1-----------------|



--------------------|--------------------|---------------------|
--3--------3/-------|--------------------|---------------------|
--------------------|--3-----------------|--3--------3---------|
--------------------|-----------------3--|----------------1----|



--------------------|---------------------|-------------------|
--------------------|--5--------7----8----|--7----------------|
-----------------5--|---------------------|-------------------|
--3-----------------|---------------------|-------------------|



------------------|------|------|------|------|------|------|------|------|
------------------|------|------|------|------|------|------|------|------|
------------------|------|------|------|------|------|------|------|------|
------------------|------|------|------|------|------|------|------|------|



------|------|------|------|------|------|------|------|------|------|------|
------|------|------|------|------|------|------|------|------|------|------|
------|------|------|------|------|------|------|------|------|------|------|
------|------|------|------|------|------|------|------|------|------|------|



-------------------|------------------|-------------------|------------------|
-------------------|------------------|-------------------|------------------|
-------------------|------------------|--3----------------|------------------|
--1----------------|------------------|-------------------|------------------|



-------------------|------------------|-------------------|------------------|
-------------------|------------------|--0----------------|------------------|
--1----------------|------------------|-------------------|------------------|
-------------------|------------------|-------------------|------------------|



-------------------|------------------|-------------------|------------------|
-------------------|------------------|-------------------|------------------|
-------------------|------------------|--3----------------|------------------|
--1----------------|------------------|-------------------|------------------|



-------------------|------------------|-------------------|------------------|
-------------------|------------------|-------------------|------------------|
--1----------------|------------------|--0----------------|------------------|
-------------------|------------------|-------------------|------------------|



-------------------|-------------------|--------------------|
--0----------------|-------------------|--------------------|
-------------------|--3----------------|--2------------2----|
-------------------|-------------------|--------------------|



---------------------|-------------------|-------------------|
---------------------|-------------------|-------------------|
------------------0--|--1----------------|--3----------------|
--3------------3-----|-------------------|-------------------|



--------------------|---------0------------|-------------------|
--0--------------2--|--3---------2------3--|--0----------------|
--------------------|----------------------|-------------------|
--------------------|----------------------|-------------------|



-------------------|--------------------|---------------------|
-------------------|--------------------|---------------------|
--3----------------|--2------------2----|------------------0--|
-------------------|--------------------|--3------------3-----|



-------------------|-------------------|-------------------|
-------------------|-------------------|--0----------------|
--1----------------|--3----------------|-------------------|
-------------------|-------------------|-------------------|



-----------------------|--------------------|--------------------|
--3----3--3--2----2----|--------------------|--3------------3/---|
-----------------------|-----------------3--|--------------------|
-----------------------|--1-----------------|--------------------|



--------------------|---------------------|--------------------|
--------------------|---------------------|-----------------3--|
--3--------------3--|--3------------3-----|--1-----------------|
--------------------|------------------0--|--------------------|



--0------2--3------2--|--------------------|-------0----------------|
----------------------|--0--------------0--|--3---------3--0--------|
----------------------|--------------------|------------------3-----|
----------------------|--------------------|---------------------1--|



--------------------|--------------------|--------------------|
--------------------|--3------------3/---|--------------------|
-----------------3--|--------------------|--3-----------------|
--1-----------------|--------------------|-----------------3--|



---------------------|--------------------|--0------------2--3--|
---------------------|--------------------|---------------------|
--3----3--------3/---|--1-----------------|---------------------|
---------------------|-----------------3--|---------------------|



--2--------------2--|--2---------------------|-----------------------|
--------------------|-----2------------------|-----------------------|
--------------------|--------0--0--0----0----|--1--1--1--0--1--------|
--------------------|------------------------|-----------------------|



-----------------------|-----------------------|-----------------------|
-----------------------|-----------------------|-----------------------|
--1--1--1--0--1--------|--5--5--5--3--5--------|--5--5--5--3--5--------|
-----------------------|-----------------------|-----------------------|



-----------------------|-----------------------|-----------------------|
-----------------------|-----------------------|-----------------------|
--1--1--1--0--1--------|--1--1--1--0--1--------|-----------------------|
-----------------------|-----------------------|--3--3--3--1--3--------|



----------------------|-----------------------|-----------------------|
----------------------|-----------------------|-----------------------|
----------------------|--1--1--1--0--1--------|--1--1--1--0--1--------|
--3----3----3--5------|-----------------------|-----------------------|



-----------------------|------------------------|-----------------------|
-----------------------|------------------------|-----------------------|
--5--5--5--3--5--------|--5--5--5--3--5--3------|--1--1--1--0--1--------|
-----------------------|------------------------|-----------------------|



-----------------------|---------------------|-------------------|
-----------------------|---------------------|-------------------|
--1--1--1--0--1--------|------------------0--|--3----------------|
-----------------------|--3------------3-----|-------------------|



-------------------|-------------------|-------------------|-------------------|
--0----------------|-------------------|-------------------|-------------------|
-------------------|--3----------------|--2----------------|-------------------|
-------------------|-------------------|-------------------|--3----------------|



-------------------|-------------------|-------------------|
-------------------|-------------------|--0----------------|
--1----------------|--3----------------|-------------------|
-------------------|-------------------|-------------------|



-------0----2--------|-------------------|-------------------|
--3------------------|--0----------------|-------------------|
---------------------|-------------------|--3----------------|
---------------------|-------------------|-------------------|



-------------------|-------------------|-------------------|-------------------|
-------------------|-------------------|-------------------|-------------------|
--2----------------|-------------------|--1----------------|--3----------------|
-------------------|--3----------------|-------------------|-------------------|



-------------------|-------------------|-------------------|-------------------|
--0----------------|-------------------|--0----------------|-------------------|
-------------------|--3----------------|-------------------|--3----------------|
-------------------|-------------------|-------------------|-------------------|



-------------------|-------------------|-------------------|-------------------|
-------------------|-------------------|-------------------|-------------------|
--2----------------|-------------------|--1----------------|--3----------------|
-------------------|--3----------------|-------------------|-------------------|



-------------------|-------------------|-------------------|-------------------|
--0----------------|-------------------|--0----------------|-------------------|
-------------------|--3----------------|-------------------|--3----------------|
-------------------|-------------------|-------------------|-------------------|



-------------------|-------------------|-------------------|-------------------|
-------------------|-------------------|-------------------|-------------------|
--2----------------|-------------------|--1----------------|--3----------------|
-------------------|--3----------------|-------------------|-------------------|



-------------------|-------------------|--------------------|
--0----------------|-------------------|--------------------|
-------------------|--3----------------|--------------------|
-------------------|-------------------|--1--------------0--|



---------------------|--------------------|--------------------|
---------------------|--------------------|--------------------|
---------------------|--3-----------------|--3--------3/-------|
--1----1--------1/---|-----------------3--|--------------------|



--------------------|---------------------|--------------------|
--------------------|--5--------7----8----|--0-----------------|
--------------------|---------------------|-----------------0--|
--3--------------3--|---------------------|--------------------|



-----------------2----|--------------------|--------------------|
--0------2--3---------|--------------------|--3--------3/-------|
----------------------|-----------------3--|--------------------|
----------------------|--1-----------------|--------------------|



--------------------|---------------------|--------------------|
--------------------|---------------------|--------------------|
--3-----------------|--3--------3---------|-----------------5--|
-----------------3--|----------------1----|--3-----------------|



---------------------|-------------------|------------------|
--5--------7----8----|--7----------------|------------------|
---------------------|-------------------|------------------|
---------------------|-------------------|------------------|



-----------------------|-----------------------|-----------------------|
-----------------------|-----------------------|-----------------------|
--1--1--1--0--1--------|--1--1--1--0--1--------|--5--5--5--3--5--------|
-----------------------|-----------------------|-----------------------|



-----------------------|-----------------------|-----------------------|
-----------------------|-----------------------|-----------------------|
--5--5--5--3--5--------|--1--1--1--0--1--------|--1--1--1--0--1--------|
-----------------------|-----------------------|-----------------------|



-----------------------|----------------------|-----------------------|
-----------------------|----------------------|-----------------------|
-----------------------|----------------------|--1--1--1--0--1--------|
--3--3--3--1--3--------|--3----3----3--5------|-----------------------|



-----------------------|-----------------------|------------------------|
-----------------------|-----------------------|------------------------|
--1--1--1--0--1--------|--5--5--5--3--5--------|--5--5--5--3--5--3------|
-----------------------|-----------------------|------------------------|



-----------------------|-----------------------|---------------------|
-----------------------|-----------------------|---------------------|
--1--1--1--0--1--------|--1--1--1--0--1--------|------------------0--|
-----------------------|-----------------------|--3------------3-----|



-------------------|-------------------|-------------------|-------------------|
-------------------|--0----------------|-------------------|--0----------------|
--3----------------|-------------------|--3----------------|-------------------|
-------------------|-------------------|-------------------|-------------------|



-------------------|-------------------|-------------------|-------------------|
-------------------|-------------------|-------------------|-------------------|
--3----------------|--2----------------|-------------------|--1----------------|
-------------------|-------------------|--3----------------|-------------------|



-------------------|-------------------|-------------------|------------------|
-------------------|--0----------------|--0----------------|------------------|
--3----------------|-------------------|-------------------|------------------|
-------------------|-------------------|-------------------|------------------|



------------------|------------------|------------------|------------------|
------------------|------------------|------------------|------------------|
------------------|------------------|------------------|------------------|
------------------|------------------|------------------|------------------|



---------------------|-------------------|----------------------|
---------------------|-------------------|----------------0--2--|
------------------0--|--3----------------|--1----1--------------|
--1------------3-----|-------------------|----------------------|



------------------0--|--2------------0-----|-------------------|
--3------------3-----|------------------3--|--0----------------|
---------------------|---------------------|-------------------|
---------------------|---------------------|-------------------|



---------------------|--------------------|---------------------|
---------------0--2--|--3--------2--------|--0------------2--3--|
--3------------------|--------------------|---------------------|
---------------------|--------------------|---------------------|



-------------------|---------------------|-------------------|
-------------------|------------------0--|-------------------|
--0----------------|--1------------3-----|-------------------|
-------------------|---------------------|--1----------------|



----------------------|---------------------|--------------------------|
----------------------|---------------------|--------------------------|
----------------------|---------------------|--0--0--0--0--0--0--0--0--|
--3----3----3------3--|--3----3----3--------|--------------------------|



--------------------------|---------------------|-------------------|
--------------------------|---------------------|-------------------|
--0--0--0--0--0--0--0--0--|------------------0--|--3----------------|
--------------------------|--1------------3-----|-------------------|



----------------------|------------------0--|--2------------0-----|
----------------0--2--|--3------------3-----|------------------3--|
--1----1--------------|---------------------|---------------------|
----------------------|---------------------|---------------------|



-------------------|---------------------|--------------------|
--0----------------|---------------0--2--|--3--------2--------|
-------------------|--3------------------|--------------------|
-------------------|---------------------|--------------------|



---------------------|-------------------|---------------------|
--0------------2--3--|-------------------|------------------0--|
---------------------|--0----------------|--1------------3-----|
---------------------|-------------------|---------------------|



-------------------|----------------------|---------------------|
-------------------|----------------------|---------------------|
-------------------|----------------------|---------------------|
--1----------------|--3----3----3------3--|--3----3----3--------|



--------------------------|--------------------------|---------------------|
--------------------------|--------------------------|---------------------|
--0--0--0--0--0--0--0--0--|--0--0--0--0--0--0--0--0--|------------------0--|
--------------------------|--------------------------|--1------------3-----|



-------------------|----------------------|------------------0--|
-------------------|----------------0--2--|--3------------3-----|
--3----------------|--1----1--------------|---------------------|
-------------------|----------------------|---------------------|



--2------------0-----|-------------------|---------------------|
------------------3--|--0----------------|---------------0--2--|
---------------------|-------------------|--3------------------|
---------------------|-------------------|---------------------|



--------------------|---------------------|-------------------|
--3--------2--------|--0------------2--3--|-------------------|
--------------------|---------------------|--0----------------|
--------------------|---------------------|-------------------|



---------------------|-------------------|----------------------|
------------------0--|-------------------|----------------------|
--1------------3-----|-------------------|----------------------|
---------------------|--1----------------|--3----3----3------3--|



---------------------|--------------------------|--------------------------|
---------------------|--------------------------|--------------------------|
---------------------|--0--0--0--0--0--0--0--0--|--0--0--0--0--0--0--0--0--|
--3----3----3--------|--------------------------|--------------------------|



---------------------|-------------------|----------------------|----||
---------------------|-------------------|----------------0--2--|----||
------------------0--|--3----------------|--1----1--------------|----||
--1------------3-----|-------------------|----------------------|----||
Calificar esta versión:
Aviso: Este fichero es trabajo propio de su transcriptor y representa su interpretación personal de la canción. El material contenido en esta página es para exclusivo uso privado, por lo que se prohibe su reproducción o retransmisión, así como su uso para fines comerciales.
Más versiones de Siempre Estas Alli, Baron Rojo
Siempre Estas Alli
acordes
Siempre Estas Alli
bajo
Descubre más canciones de Baron Rojo