Barney, Barney Y Sus Amigos (tablatura)

Autor: juan cruz_c | 35020 visualizaciones



e|----0--0--2--4--2--4--2-------0--0--2--4--0--------
B|-0-------------------------0-----------------4-----
G|---------------------------------------------------
D|---------------------------------------------------
A|---------------------------------------------------
E|---------------------------------------------------

e|-0--0--2--4--5--4--2--------------0--0----
B|----------------------4--0--2--4----------
G|------------------------------------------
D|------------------------------------------
A|------------------------------------------
E|------------------------------------------





Calificar esta versión:
Aviso: Este fichero es trabajo propio de su transcriptor y representa su interpretación personal de la canción. El material contenido en esta página es para exclusivo uso privado, por lo que se prohibe su reproducción o retransmisión, así como su uso para fines comerciales.
Más versiones de Barney, Barney Y Sus Amigos
Barney
tablatura
Barney (ver 2)
tablatura
Barney (ver 3)
tablatura
Descubre más canciones de Barney Y Sus Amigos