Mi Razón De Ser, Banda Ms (tablatura)

Autor: pacofiguer | 23104 visualizaciones



Aqui esta la tablatura para esta bonita cancion, espero le guste...
Dedicada para todos los PASKIZ del Tepehuaje
Nota: s=slide (arrastrar la cuerda)

Intro:
Esta es la parte del clarinete:
         FA          DO          SOLm           REm DO
E--------------------------------------------------------------
B----1-3-3s5-6-5-6s8-6-5-3-5-3-5s8-6-5-3-5-3-5s6-5-3-1-3-2-1---
G--0-----------------------------------------------------------
D--------------------------------------------------------------
A--------------------------------------------------------------
E--------------------------------------------------------------

Esta es la parte de las trompetas y trombones:
      REm       DO        SOLm     SIb DO FA
E--------------------------------------------------------------
B--------------------------------------------------------------
G--5-7-7-6-7-6-7-9-5-4-5-4-5-7-1-0-1-0-1-3-2-5-----------------
D----------------------------------------------3---------------
A--------------------------------------------------------------
E--------------------------------------------------------------


Gracias..





Calificar esta versión:
Aviso: Este fichero es trabajo propio de su transcriptor y representa su interpretación personal de la canción. El material contenido en esta página es para exclusivo uso privado, por lo que se prohibe su reproducción o retransmisión, así como su uso para fines comerciales.
Más versiones de Mi Razón De Ser, Banda Ms
Mi Razon De Ser
acordes
Mi Razon De Ser (ver 2)
acordes
Mi Razon De Ser (ver 3)
acordes
Mi Razón De Ser
tablatura
Descubre más canciones de Banda Ms