Deja, Banda El Recodo (tablatura)

Autor: Anónimo | 20863 visualizaciones

Que onda a todos los chavos q visitan esta pagina esta
es la correcion de la cancion que esta aqui y
colaboro con ella cristobal (asi dice en la pagina)
y cuando la quise tocar no salia asi que por eso se
las escribo y el requinto
tambien no estaba bien, bueno asi va:

requinto:se repite dos veces

1-12-12-12-12-10-8-12-12-12-12-10-8-7----8-8-8-8-7--8-8-8-8-10-12-12-10
2------------------------------------8------------10-------------------
3----------------------------------------------------------------------
4----------------------------------------------------------------------
5----------------------------------------------------------------------
6----------------------------------------------------------------------

tambien se repite dos veces

1-10-8--10-8-8-7--7----7-8-10
2-------------------10-------
3----------------------------
4----------------------------
5----------------------------
  DO                MIm
Deja decirte que te amo
                  FA
que nunca habia sentido
       SOL
amor igual.

LAm                           MIm
Que eres luz de un lindo amanecer
      FA
mil motivos por los que hoy
        SOL
vive mi ser.

LAm                         MIm
Que esres tu el aire al respirar
      FA
mil motivos de saber
           SOL
lo que es amar.

DO                                 MIm
Deja decirte palabras, palabras bonitas
FA
deja tocar con mis manos
         SOL
tu cara bonita.

DO                                 MIm
Deja morderte los lavios como una manzana
FA                 MI7
deja que nuestra miradas
             SOL
se metan al alma

Deja..........

Requinto...

Deja decirte palabras palabras binitas.....



Asi esta bien la rola.Y gracias a ATAME por
dejar que coperemos en esto.Y un besotote a mi novia
YUNUEN te amo.
Calificar esta versión:
Aviso: Este fichero es trabajo propio de su transcriptor y representa su interpretación personal de la canción. El material contenido en esta página es para exclusivo uso privado, por lo que se prohibe su reproducción o retransmisión, así como su uso para fines comerciales.
Más versiones de Deja, Banda El Recodo
Deja
acordes
Deja (ver 2)
acordes
Deja (ver 3)
acordes
Deja
tablatura
Descubre más canciones de Banda El Recodo