Tabaco Y Chanel, Bacilos (tablatura) (ver 2)

Autor: cristrobin | 31714 visualizaciones



e|-----3----3-----3--3---3------7--7----5--------5------------------||
B|----------------------------------------8-7-8----7----------------||
G|-1/4--1/4--4--5------5---5--4---------------------7---------------||
D|---------------------------------------------------7-5-4----------||
A|------------------------------------------------------------------||
E|------------------------------------------------------------------||

|---0-3-3------------5----------------------------------------------
|--2------3-3-0--8-7--8-7-8-7-5-------------------------------------
|-3-----------------------------7-5-4-7-4-5-4-5---------------------
|-----------------------------------------------7-5-4h5p4---4-5-7---
|---------------------------------------------------------7---------
|-------------------------------------------------------------------sigue abajo

|---------5---------------||----------------------------------------||
|-----8-7---8-7-5-7-------||-0--1--1/3--3h5--3----------------------||
|-3-4--------------7------||-0--2--2/4--4/5--4----------------------||
|-------------------7-5-4-||----------------------------------------||
|-------------------------||----------------------------------------||
|-------------------------||----------------------------------------||


INTRO: G-C-E-D X2 G-G

G            C                
Un olor a tabaco y channel
Em                 D         
  me recuerda el olor de su piel
G                C
 una mezcla de miel y cafe
     Em                       D  
me recuerda el sabor de sus besos


G                  C
 el color de el final de la noche
Em                D                      C
  me pregunta donde fuy a parar, donde estas
          D                 C
que esto solo se vive una vez
         D        
donde fuiste a parar donde estas.


CORO
G            D           
Un olor a tabaco y chanel,
Lm               Em         E-D-C
  y una mezcla de miel y cafe
                 D     
me preguntan por ella (ella)
C                 D   
 me preguntan por ella
G                 D           
 me preguntan también las estrellas
Lm                Em         E-D-C
 me reclaman que vuelva por ella
                   D     
hay que vuelva por ella (ella)

 C                        D   
hay que vuelva por eeeeeella


              C                   Em         
 No se olvida, no se va, no se olvida
                      D         
 No se va, no se olvida nada, nada...
G                       C                  Em
 No se va, no se olvida, no se va, ¡no se olvida!
                       D         
 No se va, no se olvida nada, nada...


G             C
 Una rosa que no floreció
Em                  D            
 Pero que el tiempo no la marchita
G              C                      Em
 Una flor prometida a un amor que no fue
                 D 
 pero que sigue viva

        G                   C                     Em
Y otra vez, el color del final, del final, de la noche
        D                  C
me pregunta donde fuy a parar,
         D                   C
que esto solo se vive una vez
        D         
donde fuiste a parar donde estas.

CORO
G            D           
Un olor a tabaco y chanel,
Lm               Em         E-D-C
  y una mezcla de miel y cafe
                 D     
me preguntan por ella (ella)
C                 D   
 me preguntan por ella
G                 D           
 me preguntan también las estrellas
Lm                Em         E-D-C
 me reclaman que vuelva por ella
                   D     
hay que vuelva por ella (ella)

 C                        D   
hay que vuelva por eeeeeella



                 Cm7
Pero fueron las mismas estrellas
        G         D
que un dia, marcaron mis manos
C                Cm7                 G
 Y apartaron la flor, esa flor de mi vida,
      D   Dsus4
De mi vida...
CORO
G            D           
Un olor a tabaco y chanel,
Lm               Em         E-D-C
  y una mezcla de miel y cafe
                 D     
me preguntan por ella (ella)
C                 D   
 me preguntan por ella
G                 D           
 me preguntan también las estrellas
Lm                Em         E-D-C
 me reclaman que vuelva por ella
                   D     
hay que vuelva por ella (ella)

 C                        D   
hay que vuelva por eeeeeella





Calificar esta versión:
Aviso: Este fichero es trabajo propio de su transcriptor y representa su interpretación personal de la canción. El material contenido en esta página es para exclusivo uso privado, por lo que se prohibe su reproducción o retransmisión, así como su uso para fines comerciales.
Más versiones de Tabaco Y Chanel, Bacilos
Tabaco Y Chanel
acordes
Tabaco Y Chanel
tablatura
Tabaco Y Chanel (ver 2)
tablatura
Descubre más canciones de Bacilos