Guerras Perdidas, Bacilos (tablatura)

Autor: Anónimo | 43382 visualizaciones



Bueno esta es la 1era vez que publico una canción, he tratado de ponerla
lo mas clara posible y espero q les agrade.
Gracias Rosario por la idea ;)


B*   :  X24442
B    :  799877
E*   :  022100
E    :  X79997
A*   :  X02220
A    :  577655
C#m  :  X46654
E/C#m:  9X999X


Intro:


   A   B  C#m D#m  E                 A
E---------------------------------0----------
B--2---4---5---7---9------------2------2-----
G--2---4---6---8---9---------2---------2-----
D-------------------------2------------2-----
A--0---2---4---6---7-------------------0-----
E--------------------------------------------


   A   B  C#m D#m  E      B      A
E-------------------------2------0---------
B--2---4---5---7---9------4------2---------
G--2---4---6---8---9------4------2---------
D-------------------------4------2---------
A--0---2---4---6---7------2------0---------
E------------------------------------------


   A   B  C#m D#m  B                 A
E-----------------------------------0------------
B--2---4---5---7---7-------------2--------2------
G--2---4---6---8---8----------2-----------2------
D----------------------9---2--------------2------
A--0---2---4---6---9----------------------0------
E------------------------------------------------



 E*         E                    Riff 1
   Tragando palabras te ves dando cuenta

 Riff 2
   Que aveces lo lógico es lo más difícil

 Riff 3
   Y poquito a poco te vas acercando
   Al fuego, a la llama que quema
   A las mariposas


 Riff 4
   Azules y blancas entre las cenizas

 Riff 5
   Las alas sin vida de vuelos suicidas

 Riff 3
   Y yo las entiendo porqué yo he sentido
   La luz cegadora de un fuego prohibido


 Riff 6
   Y es así


C#m
  Como se va enredando el cuento

  E
  Como se va torziendo el tiempo

  A                C#m
  Como te quedas ciego…

   B*
  Y es así,




  Coro:

     C#m
  Como te vas creyendo tus propias mentiras

        B*
  Y luego el silencio se vuelve un lamento

           A*        E
  De guerras perdidas

      A*             B*
  de guerras perdidas


 A            B           C#m
  Quién pudo ser tan ciego para chocar

 A             C#m             B*      A*  E*
  De frente contra el fuego como mariposa

 A             B*         C#m
  Quien pudo ser tan loco para cambiar

 A            C#m            B*
  El sol de la mañana por la llama

 A                      B*
  De un fuego cualquiera

 C#m
  De juego cualquiera

 A            C#m
  De un fuego de un fuego

               B*
  De un fuego cualquiera

 A*                             E*               A*
  De un fuego cualquiera de guerras perdidas





 E                                  B
  Azules y blancas entre las cenizas

 A                C#m           B*
  Las alas sin vida de vuelos suicidas

 E                E/C#m              A
  Y yo las entiendo porqué yo he sentido

    E*                         A*
  La luz cegadora de un fuego prohibido

          B*
  De un juego prohibido

 B
  Y es asi

  (Coro)

  Despues del coro viene el Riff 7




Riff 1:

--11-----------6----7--
--------9------7----9--
------9---9---------9--
-----------------------
-----------------------
-----------------------

Riff 2:

---------------------------4---5---
-------5-------------------5---5---
-----6---6-----------6-------------
-------------------7---7-----------
-----------------------------------
--5---------4---5------------------

Riff 3:

------4------------------------------0---------------0---
--------5--------5---------2-----------0-------2-----2---
----4----------4---4-----2---2-----1---------2---2---2---
--0----------------------------------------2---------2---
-------------4---------0---------2-------------------0---
---------------------------------------------------------

Riff 4:

--7--------7-----------7---7----
--9--9-----7-----------7---9----
--9-----9--8--8--------8---9----
--9--------9-----9-----9---9----
--7--------9-----------9---7----
-----------7-----------7--------

Riff 5:

--5-----------4---2---------------0---------
--5-----4--5--5---4---------2--------0------
--6--6--------6---4------2-----2--------2---
--7-----------6---4---2---------------------
--7-----------4---2---0---------------------
--5-----------------------------------------

Riff 6:

--------------7------------
-----------7---------------
--------8------------------
-----9---------------------
--9------------------------
--------------------12/5---

Riff 7:

--7-7-7--------7--------9-7--------------------------------------
--9-9-9-----9--9-----9--9-9-9-----9-9-9--9-9---7--7-7--9-7---5---
----------9--------9--------9-----9-9-9--9-9---8--8-8--9-8---6---
-----------------------------------------------------------------
-----------------------------------------------------------------
-----------------------------------------------------------------





Calificar esta versión:
Aviso: Este fichero es trabajo propio de su transcriptor y representa su interpretación personal de la canción. El material contenido en esta página es para exclusivo uso privado, por lo que se prohibe su reproducción o retransmisión, así como su uso para fines comerciales.
Más versiones de Guerras Perdidas, Bacilos
Guerras Perdidas
acordes
Guerras Perdidas
tablatura
Descubre más canciones de Bacilos