Contigo Se Va, Bacilos (bajo)

Autor: Anónimo | 23988 visualizaciones



Bacilos - Contigo se va

Entra la bateria sola



              Intro
0:06
G||-------------------|
D||-------33-33-------|
A||--3333-------------| x6
E||-------------------|

              I estrofa
0:26
Contigo se va contigo se fue
G||-------------------|
D||-------------------|x2
A||--33333333---------|
E||-------------------|


0:33
Contigo se va contigo...
G||-------------------|
D||-------55-55-------|x2
A||--5555-------------|
E||-------------------|
              II estrofa

0:39
Empiezo a caer empiezo a entender
G||-------------------|
D||-------------------|x2
A||--33333333---------|
E||-------------------|


0:45
Si no exige cada dia...
G||-------------------|
D||-------55-55-------|x2
A||--5555-------------|
E||-------------------|

              Coro
0:52
Esperame corazón no vueles que sigue siendo hoy
G||--------------------------------------|
D||--------33-33--------33-55------------|
A||---3333---------3333------------------|
E||--------------------------------------|


0:58
Y dame otra miñatura...
G||--------------------------------------|
D||----------------------33-55-----------|
A||-------55-55--------------------------|
E||--5555-----------5555-----------------|


1:05
Dejame una razón y enseñame que quieres luchar
G||--------------------------------------|
D||--------33-33--------33-55------------|
A||---3333---------3333------------------|
E||--------------------------------------|


1:12
Para que un día nuestras promesas...
G||--------------------------------------|
D||----------------------33-55-----------|
A||-------55-55--------------------------|
E||--5555-----------5555-----------------|


              Intermedio


1:19
G||-------------------|
D||-------33-33-------|
A||--3333-------------| x4
E||-------------------|


              III estrofa
1:33
De lejos amor, desde muy lejos verdad
G||-------------------|
D||-------------------|x2
A||--33333333---------|
E||-------------------|


1:39
Robandonos cada día
G||-------------------|
D||-------55-55-------|x2
A||--5555-------------|
E||-------------------|


1:45
Contigo se va contigo se fue
G||-------------------|
D||-------------------|x2
A||--33333333---------|
E||-------------------|


1:52
Contigo se va contigo...
G||-------------------|
D||-------55-55-------|x2
A||--5555-------------|
E||-------------------|

              Coro

1:58
Esperame corazón no vueles que sigue siendo hoy
G||--------------------------------------|
D||--------33-33--------33-55------------|
A||---3333---------3333------------------|
E||--------------------------------------|


2:05
Y dame otra miñatura...
G||--------------------------------------|
D||----------------------33-55-----------|
A||-------55-55--------------------------|
E||--5555-----------5555-----------------|


2:12
Dejame una razón y enseñame que quieres luchar
G||--------------------------------------|
D||--------33-33--------33-55------------|
A||---3333---------3333------------------|
E||--------------------------------------|

2:19
Para que un día nuestras promesas...
G||--------------------------------------|
D||----------------------33-55-----------|
A||-------55-55--------------------------|
E||--5555-----------5555-----------------|


2:25
Sooool..
G||--------------------------------------|
D||--------------------------------------|
A||--7777------7777----------------------|
E||-------5555------5555-----------------|


2:32
G||--------------------------------------|
D||--------------------------------------|
A||--8888------8888----------------------|
E||-------8888------8888-----------------|


2:38
G||--------------------------------------|
D||--------------------------------------|
A||--7777------7777----------------------|
E||-------5555------5555-----------------|


2:45
G||--------------------------------------|
D||-----------------3333-----------------|
A||--3333-5555-3333----------------------|
E||--------------------------------------|


2:51
Contigo se va contigo se fue
G||-------------------|
D||-------------------|x2
A||--3/8--------------|
E||--------8/5--------|


2:57
Contigo se va contigo...
G||-------------------|
D||-------55-55-------|x2
A||--5555-------------|
E||-------------------|

              Coro

3:05
Esperame corazón no vueles que sigue siendo hoy
G||--------------------------------------|
D||--------33-33--------33-55------------|
A||---3333---------3333------------------|
E||--------------------------------------|


3:11
Y dame otra miñatura...
G||--------------------------------------|
D||----------------------33-55-----------|
A||-------55-55--------------------------|
E||--5555-----------5555-----------------|


3:18
Dejame una razón y enseñame que quieres luchar
G||--------------------------------------|
D||--------33-33--------33-55------------|
A||---3333---------3333------------------|
E||--------------------------------------|

3:24
Para que un día nuestras promesas...
G||--------------------------------------|
D||----------------------33-55-----------|
A||-------55-55--------------------------|
E||--5555-----------5555-----------------|

            Outro

Soool
3:31
G||-------------------|
D||-------33-33-------|
A||--3333-------------| x3
E||-------------------|

3:41
G||-------------------|
D||-------33-33-------|
A||--3333---------3---|
E||-------------------|


Cualquier correccion la vere en el futuroo..




P.A.R.S





Calificar esta versión:
Aviso: Este fichero es trabajo propio de su transcriptor y representa su interpretación personal de la canción. El material contenido en esta página es para exclusivo uso privado, por lo que se prohibe su reproducción o retransmisión, así como su uso para fines comerciales.
Más versiones de Contigo Se Va, Bacilos
Contigo Se Va
acordes
Contigo Se Va
bajo
Descubre más canciones de Bacilos