Enseñame A Olvidar, Aventura (tablatura) (ver 2)

Autor: Anónimo | 40323 visualizaciones

Coloca un capo en el 8º traste, como lo hace Lenny
Santos; o sino suman +8 a cada número de la tablatura:

-aaaaaaa---a---aaaaaaa-aaaaaaa---------aaaaa--a--a-aaaa---
-a--------a-a--a-----a-a-----a--------a-----a-a--a-a--a---
-a--------a-a--a-----a-a-----a--------a-----a--aa--aaaa---
-a-------a---a-aaaaaa--a-----a---------aaaaa--------------
-a-------aaaaa-a-------a-----a--------a-----a-------------
-a-------a---a-a-------a-----a--------a-----a-------------
-aaaaaaa-a---a-a-------aaaaaaa---------aaaaa--------------

-----------------------------------------------------------------------
--POR SIACASO TODO ESTO NO LO COPIÉ, LO TUBE QUE SACAR, TENGO 7 AÑOS,--
--MENTIRA 14:----NO LO COPIEN------------------------------------------
-----------------------------------------------------------------------

h: Jalar ó deslizar la cuerda hacia abajo.
p: Jalar ó deslizar la cuerda hacia arriba.
(): Nota que se toca muy suavemente
///: Tocar rápido
S: Sin sacar dedo y rápido (notas individuales)
          G               Am          F              C
e:------0-1-3-3h5-3--3-1-0-0--0h1p0---------3-3-1-0-----------------
B:--1-3-----------------------------3-1--------------------3-1-0----
G:--------------------------------------2----------------0----------
D:----------------------------------------3------------2------------
A:---------------------------------------------------3--------------
E:------------------------------------------------------------------

    G F    Am             G         F         Am           G
e:--3-1------------------7-7-7-----5-5--4h5----------------7-7-7----
B:--3-1---1-3-1h5-(3)---8-8-8-8---6-6-6-5h6--1-3-1h5-(3)--8-8-8-8---
G:------------------------------------------------------------------
D:------------------------------------------------------------------
A:------------------------------------------------------------------
E:------------------------------------------------------------------

     F            Am               C
e:---5-5--4h5--------------------------3-3--1-0---------3-3--1-0----
B:--6-6-6-5h6--1-3-1h5-3h5-(3)--------------------------------------
G:----------------------------------0----------------0--------------
D:--------------------------------2----------------3----------------
A:------------------------------3----------------3------------------
E:------------------------------------------------------------------

Estrofa 1:
              C                                     G
Sera esto un sueño, que te perdí, que en verdad ya no te tengo
           F              Dm                  G
cuanto quisiera cerrar mis ojos y empezar de nuevo.

e:--3--1----------
B:--3--1---1-3-1--

          C                                     G
Sera posible que he de olvidar aquel romance apasionado
             F              Dm                       G
mmm será posible un día decirte que por fin ya no te amo

e:--000-101-3--

Estribillo:
         Am                      F                        C
Lo dudo mucho mi amor, es como ver a un pez del mar poder volar
         Am                      F                   G
y aunque te deje de amar, es imposible que te pueda olvidar

     ///
e:--5-3---3-5-3---3-5--
B:------5-------5------

Coro:
         F                          Am                     G
Si me enseñaste a querer también enséñame olvidar esto que siento
         F                          Am                     G
por que eres tu niña querida la mujer a quien yo amo y a quien quiero
         F                          Am                     G
quien sanara este dolor que me dejaste en mi interior cuando te fuiste
         F                          Am
quien invento el amor debió dar instrucciones
                G
pa' evitar el sufrimiento.

Puente:
              Am                      F                    C
Llevo en mis venas la magia de tus besos el fruto de este amor
                                      G                     F
lo veo como un juego y al fin de la jugada tu saliste ganadora
                       C
y hoy por ti estoy sufriendo.
         Am                F                    C
Aprendí amar estando a tu lado me enseñaste a querer
                          G                       F
y me hiciste un dañofuiste mi profesora en el amor y
                          C
en tus clases de amorno me enseñaste de lo malo

     ///
e:--5-3---3-5-3---3-5--
B:------5-------5------

Coro:
         F                          Am                     G
Si me enseñaste a querer también enséñame olvidar esto que siento
         F                          Am                     G
por que eres tu niña querida la mujer a quien yo amo y a quien quiero

Palabras dichas:

C            Am              G
                    sabes te amo tanto que me da miedo volver a verte

Solo:
      C             Am          G
e:--3----3----3---5----5----5---3----3---3-----3-7-5-3----7-10-7-5--
B:---111--111--1---111--111--1---000--000---------------------------
G:------------------------------------------------------------------
D:------------------------------------------------------------------x2
A:------------------------------------------------------------------
E:------------------------------------------------------------------

      Am                G                 C
e:----0-3-5-3-0--7--------------------------------------------------
B:--1------------8-------0-3-6-5-3-0-1--3s5s3s5s3----3s5s3s5s3------
G:---------------------0-------------------------4s5----------4s5---
D:------------------------------------------------------------------
A:------------------------------------------------------------------
E:------------------------------------------------------------------
        Am                      C                         Am
e:--------------------------------------------------------------------
B:--3s5s3s5s3----3s5s3s5s3----3s5s3s5s3----3s5s3s5s3----3s5s3s5s3-----
G:-----------2s4----------2s4----------4s5----------4s5----------2s4--
D:--------------------------------------------------------------------
A:--------------------------------------------------------------------
E:--------------------------------------------------------------------


                                       C
e:---------------------------------------3--1----------3--1--------
B:--3s5s3s5s3------------------------------------------------------
G:-----------2s4-5s4s5s4s5s4s5--------0-------------0--------------
D:----------------------------------2-------------2----------------
A:--------------------------------3-------------3------------------
E:-----------------------------------------------------------------

Estrofa2:
         C                                     G
Sera tu ego que te empujo a otro hombre con dinero,
        F              Dm                      G
y si es así pues tratare de resignarme por completo.

e:--3--1----------
B:--3--1---1-3-1--

         C                                                   G
Ay dios, serán tus cartas de amor, la soledad que me hace recordarte
        F               Dm                       G
o las novelas que tu veías tan ansiosa tomando café.

e:--000-101-3

Estribillo:
          Am             F                     C
Sabes mi amor mi única meta fue lograr tenerte aquí
        Am                  F                  C
y perdí la ilusión y la esperanza de que tu vuelvas a mi.

     ///
e:--5-3---3-5-3---3-5--
B:------5-------5------

Coro:
         F                          Am                     G
Si me enseñaste a querer también enséñame olvidar esto que siento
         F                          Am                     G
por que eres tu niña querida la mujer a quien yo amo y a quien quiero
         F                          Am                     G
quien sanara este dolor que me dejaste en mi interior cuando te fuiste
         F                          Am
quien invento el amor debió dar instrucciones
               G
pa' evitar el sufrimiento.

Puente:
                Am                     F                   C
Dios me ha concedido el por lo menos verte quizas porque rogue
                       G                     F
pero hoy me he dado cuenta que no vale tu presencia
                   C
si tu a mi ya no me amas.
          Am                   F
Cada mañanita despierta un infeliz y yo soy uno
              C
de ellos por que sufro por ti
         G                        F                          C
papa me dijo que no llore por mujeres y por ti eso es lo que hago .

Coro fin:
  F                Am                    G
Show me how to forget you....oh please mi amor noono
  F               Am                     G
Show me how to forget you....oh please mi amor noono
  F                        Am               G
esta noche quiero volver a verte vivir contigo una aventura
  F                        Am               G
esta noche quiero volver a verte vivir contigo una aventura
  F                        Am               G
esta noche quiero volver a verte vivir contigo una aventura
  F                        Am               G
esta noche quiero volver a verte vivir contigo una aventura
Calificar esta versión:
Aviso: Este fichero es trabajo propio de su transcriptor y representa su interpretación personal de la canción. El material contenido en esta página es para exclusivo uso privado, por lo que se prohibe su reproducción o retransmisión, así como su uso para fines comerciales.
Más versiones de Enseñame A Olvidar, Aventura
EnseÑame A Olvidar
acordes
Enseñame A Olvidar
tablatura
Enseñame A Olvidar (ver 2)
tablatura
Descubre más canciones de Aventura