Dile Al Amor, Aventura (tablatura) (ver 3)

Autor: wilepaqui | 18326 visualizaciones

Dile al amor- CAPO 4TO TRASTE
Las Tablaturas Se Hacen Considerando El Capo en el Cuarto Traste.

los arpegios de los acordes son:

G                            Em
e----------------------   e----------------------
B----3-----3-----3-----   B----0-----0-----0-----
G------4-----4---------   G------0-----0---------
D--5-----5-----5-------   D--2-----2-----2-------
A----------------------   A----------------------
E----------------------   E----------------------

    C                         D
e----------------------   e--------2h3-2---------
B------1-1h3-1---------   B------3---------------
G----0-----------------   G----2-----------------
D--2-------------------   D--0-------------------
A----------------------   A----------------------
E----------------------   E----------------------

NOTA: EN LA PARTE DEL CORO VAN LOS SIGUIENTES ARPEGIOS:
(estan en orden respecto de los acordes del coro)

    C                        D
e----0-----0-----0-----   e--------2h3-2---------
B------1-----1---------   B------3-------3-------
G--0-----0-----0-------   G----2-----------------
D----------------------   D--0-------------------
A----------------------   A----------------------
E----------------------   E----------------------

    G                          D
e--------3-------------   e--------2-------------
B------3---------------   B------3---------------
G----4-----------------   G----2-----------------
D--5-------------------   D--0-------------------
A----------------------   A----------------------
E----------------------   E----------------------

    Em
e----------0-----------
B------0-----0---------
G----0-----------0-----
D--2-----2-----2-------
A----------------------
E----------------------

Y PARA LA PARTE DE: no quiero ver fechas en mi calendario...
los arpegios son:

    D# (X2)                       F (X2)
e--------3-------------   e--------1-------------
B------4---------------   B------1---------------
G----3-----------------   G----2-----------------
D--5-------------------   D--3-------------------
A----------------------   A----------------------
E----------------------   E----------------------

    Dm(X2)                          Gm(X2)
e--------1-------------   e--------3-------------
B------3---------------   B------3-3-------------
G----2-----------------   G----3---3-------------
D--0-------------------   D--5-------------------
A----------------------   A----------------------
E----------------------   E----------------------



Intro:
(2x)
e--------------------------------------------
B--------------------------------------------
G---------------------2----------------------
D----2-2-2---4-5-4-2-----4-5-4-2-4-4-2-2-0---
A-3------------------------------------------
E--------------------------------------------

(2x)
e-3-2-3-2-3-2-3-2-3-2-3-2-3-2-3-2---3/10-----
B---------------------------------3----------
G--------------------------------------------
D--------------------------------------------
A--------------------------------------------
E--------------------------------------------

G                                       Em
cupido no te entiendo al hablar de este ejemplo
           C                            D
de juntar corazones un experto en conexion
              G                         Em
te fallaron las flechas y de tantas violetas
                C                                 D
que por ti he regalado en mi jardin no hay ni una flor


[[CORO]]
             C                        D
pues dile al amor que no toque mi puerta
                    G           D        Em
que yo no estoy en casa que no vuelva mañana
              C                         D
a mi corazon ya le ha fallado en ocaciones
                 G          D        Em
me fui de vacaciones lejos de los amores
              C                   D
dile al amor que no es grato mi vida
                G         D          Em
dale mis despedidas juntale las razones

(2x)
e-3-2-3-2-3-2-3-2-3-2-3-2-3-2-3-2---3/10-----
B---------------------------------3----------
G--------------------------------------------
D--------------------------------------------
A--------------------------------------------
E--------------------------------------------

G                                   Em
cupido no entiendo si la suerte me odia
              C
y me ha dado la herencia en la
                D
fortuna del desamor

G                                    Em
y te pido disculpa pero no aciertas una
               C                         D
y me dejas al lado aunque no sea tu intencion



             C                        D
pues dile al amor que no toque mi puerta
                    G           D        Em
que yo no estoy en casa que no vuelva mañana
              C                         D
a mi corazon ya le ha fallado en ocaciones
                 G          D        Em
me fui de vacaciones lejos de los amores
              C                   D
dile al amor que no es grato mi vida
                G         D          Em
dale mis despedidas juntale las razones

yes sir

e---------------------------------------
B---------------------------------------
G-0h3-3-3-3-3-3-3--3h5-3-3-2-2-3-5-3-2--
D---------------------------------------
A---------------------------------------
E---------------------------------------

e---------------------------------------
B---------------------------------------
G-0h3-3-3-3-3-3-3--3h5-3-3-2-2-3-5-8-7--
D---------------------------------------
A---------------------------------------
E---------------------------------------


le gusta mi bachata amiguita
 (x2)
e---------------------------------------
B--------------------------------------
G-7-7-7-7-7-7-7-7-7-7h8-7-7-5-5-7-8-7-5-
D---------------------------------------
A---------------------------------------
E---------------------------------------

D#                          F
quiero fechas en mi calendario
               Dm
visitas en mi horario
               Gm
si se trata de amor
D#                            F
no me interesa oir mas canciones
                 Dm
no quiero ver flores
                 Gm
si nose trata de amor
D#                         F
pongo a dieta los sentimientos
             Dm                 Gm
evitando los momentos de desilucion

CUPIDO


[[esta parte los acordes son con rasgueo]]

             C                        D
pues dile al amor que no toque mi puerta
                    G           D        Em
que yo no estoy en casa que no vuelva mañana

[[aki comienza el arpegiado]]
              C                         D
a mi corazon ya le ha fallado en ocaciones
                 G          D        Em
me fui de vacaciones lejos de los amores
              C                   D
dile al amor que no es grato mi vida
                G         D          Em
dale mis despedidas juntale las razones

Ok.... Aveenturaa...

(2x)
e-3-2-3-2-3-2-3-2-3-2-3-2-3-2-3-2---3/10----
B---------------------------------3---------
G-------------------------------------------
D-------------------------------------------
A-------------------------------------------
E-------------------------------------------

 C               G          D
i Don't need no love in my life
i Don't need no love in my life
i Don't need no love in my life

(Esta Ultima Se Hace Asi)

  C             G
i Don't need no love
Calificar esta versión:
Aviso: Este fichero es trabajo propio de su transcriptor y representa su interpretación personal de la canción. El material contenido en esta página es para exclusivo uso privado, por lo que se prohibe su reproducción o retransmisión, así como su uso para fines comerciales.
Más versiones de Dile Al Amor, Aventura
Dile Al Amor
acordes
Dile Al Amor
tablatura
Dile Al Amor (ver 2)
tablatura
Dile Al Amor (ver 3)
tablatura
Descubre más canciones de Aventura