Cuando Volverás, Aventura (tablatura)

Autor: Anónimo | 29516 visualizaciones

Este Tab es corejiendo el tab que esta actualmente en atame
Creo que este tab es mas preciso que el otro.
Esta cancion esta en la llave de Cm
[Cm, Ab, Bb, Cm] Estos acordes se repiten durante la cancion entera


Intro:

                 | Cm  |                         | Ab  |

E|-13-13-11-11--------11h13-11--13-13-11-11-------11h13-11-----
B|------------------13--------------------------13-------------
G|----------------12--------------------------13---------------
D|-------------------------------------------------------------
A|-------------------------------------------------------------
E|-------------------------------------------------------------
                 | Bb   |                         | Cm  |

E|-15-15-13-13-------13h15-13--18-18-18-15-20------11----------|
B|-----------------15------------------------------13----------|
G|---------------15--------------------------------12----------|
D|-------------------------------------------------------------|
A|-------------------------------------------------------------|
E|-------------------------------------------------------------|

Se repite 2 veces
Calificar esta versión:
Aviso: Este fichero es trabajo propio de su transcriptor y representa su interpretación personal de la canción. El material contenido en esta página es para exclusivo uso privado, por lo que se prohibe su reproducción o retransmisión, así como su uso para fines comerciales.
Más versiones de Cuando Volverás, Aventura
Cuando Volverás
acordes
Cuando Volverás (ver 2)
acordes
Cuando Volverás
tablatura
Cuando Volverás (ver 2)
tablatura
Descubre más canciones de Aventura