Angelito, Aventura (tablatura)

Autor: andresgil | 37351 visualizaciones

INTRO
                                          E  F  D
e|-------------------------------------|--0--1--2h3-3--3-3--2--|
B|-------------------------------------|--0--1--3------3-------|
G|--------1h2--2/4--4/2--2-1-----------|--1-----------------3--|
D|-----2--------------------2-2--(x4)--|--------0--------------|
A|--2-------------------------2--------|-----------------------|
E|-------------------------------------|--0--1-----------------|

CHORUS (Played behind the chorus.)
e|------2-----3--------5----7----8/7----7-------10--10-----8/7---7/--|
B|--3------5--------7-----8----10-----8-----12---12-----10-------8---|
G|-------------------------------------------------------------------|
D|-------------------------------------------------------------------|
A|-------------------------------------------------------------------|
E|-------------------------------------------------------------------|

e|------------------------------------------------------------------------|
B|---777h8-88-77-------8--------10-----12--12--108-8-------777h8-8-7h8----|
G|---------------7---7-------7----7------------------------------------7--|
D|------------------------------------------------------------------------|
A|------------------------------------------------------------------------|
E|------------------------------------------------------------------------|

e|-----2------3------5-----7-------8/7------7------10---10----8/7--7/--|
B|---3------5------7-----8-------10--------8-----12---12---10------8---|
G|---------------------------------------------------------------------|
D|---------------------------------------------------------------------|
A|---------------------------------------------------------------------|
E|---------------------------------------------------------------------|
Calificar esta versión:
Aviso: Este fichero es trabajo propio de su transcriptor y representa su interpretación personal de la canción. El material contenido en esta página es para exclusivo uso privado, por lo que se prohibe su reproducción o retransmisión, así como su uso para fines comerciales.
Más versiones de Angelito, Aventura
Angelito
acordes
Angelito
tablatura
Descubre más canciones de Aventura