Afterlife, Avenged Sevenfold (tablatura) (ver 2)

Autor: L300PR0 | 35904 visualizaciones

Intro 2x: D5  Bb5  G5  D#5

(Guitarra 1)
E|---------------------------------------------------
B|-6-5-6/-13~--6-5-6-5-6/-15~-6-5-6/-17-17~----------
G|---------------------------------------------------
D|---------------------------------------------------
A|---------------------------------------------------
D|---------------------------------------------------

E|---------------------------------------------------
B|-15-17b18-17-18b20---------------------------------
G|---------------------------------------------------
D|---------------------------------------------------
A|---------------------------------------------------
D|---------------------------------------------------

E|-12-13-12-10-----12-13-12-10-----12-13-12-10-------
B|-------------10--------------10--------------------
G|---------------------------------------------------
D|---------------------------------------------------
A|---------------------------------------------------
D|---------------------------------------------------

E|-12-13-12-10-----12-13-12-10-----12-13-12-10-------
B|-------------11--------------11--------------------
G|---------------------------------------------------
D|---------------------------------------------------
A|---------------------------------------------------
D|---------------------------------------------------

E|-17-18-17-15----17-18-17-15----17-18-17-15---------
B|-------------15-------------15-------------15------
G|---------------------------------------------------
D|---------------------------------------------------
A|---------------------------------------------------
D|---------------------------------------------------

E|-17-18-17-15----17-18-17-15----17b18~--------------
B|-------------16-------------16---------------------
G|---------------------------------------------------
D|---------------------------------------------------
A|---------------------------------------------------
D|---------------------------------------------------


Riff 1:
E|---------------------------------------------------
B|---------------------------------------------------
G|---------------------------------------------------
D|---------------------------------------------------
A|-5h8p5---5h8p5---------5h8p5---5h8p5---------------
D|-------6-------6-0-0-0-------6-------6-0-0-0-------
  p.m.             .....                 .....

E|---------------------------------------------------
B|---------------------------------------------------
G|---------------------------------------------------
D|---------------------------------------------------
A|-5h8p5---5h8p5---------5h8p5---5h8p5---------------
D|-------6-------6-0-0-0-------6-------6-0-0-0-------
  p.m.             .....                 .....

   
E|-----------------------------------------
B|-----------------------------------------
G|-----------------------------------------  (4x)
D|-----------------------------------------
A|-3--5--6---------------------------------
D|-3--5--6---------------------------------


E|-----------------------------------------
B|-----------------------------------------
G|-----------------------------------------
D|-----------------------------------------
A|-3--5--6--6-5--3--0----------------------
D|-3--5--6--6-5--3--0----------------------


Riff 2:
                           
E|-----------------------------------------
B|-----------------------------------------
G|----------------9--10-12-----------------
D|-5---5-5--5-5---x--x-x-----0-------------
A|-3---3-3--3-3---7--8--10---0-------------
D|---------------------------0-------------
   
E|-----------------------------------------
B|-----------------------------------------
G|----------------12--14-15----------------
D|-5---5-5--5-5---x---x--x-----------------
A|-3---3-3--3-3---10--12-13----------------
D|-----------------------------------------

E|-----------------------------------------
B|-----------------------------------------
G|-----------------------------------------
D|-----------------------------------------
A|-----------------------------------------
D|-0-0-8-0-7-0-0-10-0-8-0-0-7-8-7-5--------
   p.m..............................

   
E|-----------------------------------------
B|-----------------------------------------
G|-----------------------------------------
D|-5--5-5?-5-5-----------------------------
A|-3--3-3--3-3-----------------------------
D|-----------------------------------------
  
E|-----------------------------------------
B|-----------------------------------------
G|-----------------------------------------
D|-5--5-5--5-5--3--3-3--3-3---3--3-3--3-3--
A|-3--3-3--3-3--1--1-1--1-1---1--1-1--1-1--
D|-----------------------------------------
  
E|-----------------------------------------
B|-----------------------------------------
G|-----------------------------------------
D|-5-5---5-5-------------------------------
A|-3-3---4-4-------------------------------
D|-----------------------------------------

(Guitarra 1 e 2)
  
E|-----------------------------------------
B|-----------------------------------------
G|-----------------------------------------   (2x)
D|-0----------0----------------3--3-3-3-3-3
A|-0--0-0-0-0-0--3-3-3--3-3-3--1--1-1-1-1-1
D|-0--0-0-0-0-0--3-3-3--3-3-3--------------
   
E|-----------------------------------------
B|-----------------------------------------
G|-----------------------------------------
D|-5-5-5-----------------------------------
A|-3-3-3--7h8-7~---------------------------


(Guitarra 1)
   
E|-----------------------------------------
B|-----------------------------------------
G|-----------------------------------------
D|-3-3-3-3-3-3-3-3--5-5-5-5-5-5-5-5--------
A|-3-3-3-3-3-3-3-3--3-3-3-3-3-3-3-3--------
D|-3-3-3-3-3-3-3-3-------------------------
  
E|-----------------------------------------
B|-----------------------------------------
G|-----------------------------------------
D|-0-0-0-0-0-0-0-0-3-3-3-3-3-3-3-3---------
A|-0-0-0-0-0-0-0-0-1-1-1-1-1-1-1-1---------
D|-0-0-0-0-0-0-0-0-------------------------

Tercera Parte:
   
E|-----------------------------------------
B|-----------------------------------------
G|-----------------------------------------
D|-0-0-0--0-0-0--0-0-0--0-0-0--------------
A|-0-0-0--0-0-0--0-0-0--0-0-0--------------
D|-0-0-0--0-0-0--0-0-0--0-0-0--------------
   pm........................

   
E|-----------------------------------------
B|-----------------------------------------
G|-----------------------------------------
D|-8-8-8--8-8-8--8-8-8--8-8-8--------------
A|-8-8-8--8-8-8--8-8-8--8-8-8--------------
D|-8-8-8--8-8-8--8-8-8--8-8-8--------------
   pm........................

   
E|-----------------------------------------
B|-----------------------------------------
G|-----------------------------------------
D|-5-5-5--5-5-5--5-5-5--5-5-5--------------
A|-5-5-5--5-5-5--5-5-5--5-5-5--------------
D|-5-5-5--5-5-5--5-5-5--5-5-5--------------
   pm........................

   
E|-----------------------------------------
B|-----------------------------------------
G|-----------------------------------------
D|-1-1-1--1-1-1--1-1-1--1-1-1--------------
A|-1-1-1--1-1-1--1-1-1--1-1-1--------------
D|-1-1-1--1-1-1--1-1-1--1-1-1--------------
   pm.......................


E|-----------------------------------------
B|-----------------------------------------
G|-----------------------------------------
D|-8-8-8--8-8-8--7-7-7--7-7-7--------------
A|-8-8-8--8-8-8--7-7-7--7-7-7--------------
D|-8-8-8--8-8-8--7-7-7--7-7-7--------------
   pm........................

   
E|-----------------------------------------
B|-----------------------------------------
G|-----------------------------------------
D|-0--------8--------5--------8----7-------  (8x)
A|-0--------8--------5--------8----7-------
D|-0-?------8--------5--------8----7-------

Solo 1

E|---------------------------------------------------
B|---------5h6h8p6h5---5h6h8/15----------------------
G|-----5-7-----------7-------------------------------
D|---------------------------------------------------
A|-5-8-----------------------------------------------
D|---------------------------------------------------

E|---------------------------------------------------
B|---------5h6h8p6h5---5h6h8/20~---------------------
G|-----5-7-----------7-------------------------------
D|---------------------------------------------------
A|-5-8-----------------------------------------------
D|---------------------------------------------------

E|-8/13\8p5h6h8p6p5------6p5p3-----------------------
B|------------------8p6p5------6p5p3-6/-\6p3h5h6p5p3-
G|---------------------------------------------------
D|---------------------------------------------------
A|---------------------------------------------------
D|---------------------------------------------------

E|---------------------------------------------------
B|---------------------------------------------------
G|-6p5p3\2h3h5p3p2-----------------------------------
D|-----------------5p3p2-----------------------------
A|---------------------------------------------------
D|---------------------------------------------------

Solo 2: 

E|-17-16-15-13-15-16-17-16-15-13-15-16-17-16-15-13---
B|---------------------------------------------------
G|---------------------------------------------------
D|---------------------------------------------------
A|---------------------------------------------------
D|---------------------------------------------------

E|----------------------13-15-16-17~-----------------
B|-15----------------15------------------------------
G|----14----------14---------------------------------
D|-------15----15------------------------------------
A|----------17---------------------------------------
D|---------------------------------------------------

E|-13-12-10----10-12-13-12-10-------13p10------------
B|----------11----------------11----------11---------
G|-------------------------------10----------10------
D|----------------------------------------------12---
A|-------------------------------------------------13
D|---------------------------------------------------

E|----------10-12-13~--------------------------------
B|-------11------------------------------------------
G|----10---------------------------------------------
D|-12------------------------------------------------
A|---------------------------------------------------
D|---------------------------------------------------

E|-18-17-16-15-16-17-18-17-16-15---------------------
B|---------------------------------------------------
G|---------------------------------------------------
D|---------------------------------------------------
A|---------------------------------------------------
D|---------------------------------------------------

E|13-12-10---------~---------------15------18--------
B|---------11-------------------16-------------------
G|-----------10-------------15-----------------------
D|---------------11-------17-------------------------
A|------------------13/18----------------------------
D|---------------------------------------------------

E|-17-16-15-13-15-16-17-16-15-13----------13-17/22\17
B|-------------------------------15----15------------
G|----------------------------------14---------------
D|---------------------------------------------------
A|---------------------------------------------------
D|---------------------------------------------------

E|-13---------------------------------------17-18-20-
B|----15---------------------------17-18-20----------
G|-------14---------------14-15-17-------------------
D|----------15---14-15-17----------------------------
A|-------------17------------------------------------
D|---------------------------------------------------

E|-------10-13--10-----10--15--13--15-13-15-13-------
B|-10-13-----------13--------------------------------
G|---------------------------------------------------
D|---------------------------------------------------
A|---------------------------------------------------
D|---------------------------------------------------

E|-13--10-----10--15-10-13-10-15-10-13---------------
B|--------13-----------------------------------------
G|---------------------------------------------------
D|---------------------------------------------------
A|---------------------------------------------------
D|---------------------------------------------------

E|-13-15-13----13-17--13--15-13-17-13-15-13-17-13-15-
B|----------17---------------------------------------
G|---------------------------------------------------
D|---------------------------------------------------
A|---------------------------------------------------
D|---------------------------------------------------

E|-18-17-15----------17-15-13-------------------------
B|----------18-17-15----------17-15-13----------------
G|-------------------------------------17-15-14-------
D|----------------------------------------------17-15-
A|----------------------------------------------------
D|----------------------------------------------------

E|---------------------------------------------------
B|---------------------------------------------------
G|----------14-15-17-19-17-15----------17-15-14------
D|-14-15-17-------------------19-17-15---------------
A|---------------------------------------------------
D|---------------------------------------------------

E|---------------------------------------------------
B|-------------------------------20b23---------------
G|----------------14-15-17-17b19---------------------
D|-17-15-14-15-17------------------------------------
A|---------------------------------------------------
D|---------------------------------------------------


Pós-Solo:

E|---------------------------------------
B|---------------------------------------
G|---------------------------------------
D|-7-7-7-7-7-0-0-0-0--5-5-5-5-5-2--2-2-2-  (2x)
A|-5-5-5-5-5-0-0-0-0--3-3-3-3-3-2--2-2-2-
D|-----------0-0-0-0------------2--2-2-2-
   p.m.      .......            ........

   
E|---------------------------------------
B|---------------------------------------
G|---------------------------------------
D|-7-7-7-7-7--0-0-0-0-0--0-0-0-5-5-5-5-5-
A|-5-5-5-5-5--0-0-0-0-0--0-0-0-3-3-3-3-3-
D|------------0-0-0-0-0--0-0-0-----------
  p.m.        ................

   
E|---------------------------------------
B|---------------------------------------
G|---------------------------------------
D|-2-2-2-2-2--2-2-2----------------------
A|-2-2-2-2-2--2-2-2----------------------
D|-2-2-2-2-2--2-2-2----------------------
  p.m..............

     
E|---------------------------------------
B|---------------------------------------
G|---------------------------------------
D|---0---2---3---5---5-------------------
A|---0---2---3---5---3-------------------
D|---0---2---3---5---2-------------------
Calificar esta versión:
Aviso: Este fichero es trabajo propio de su transcriptor y representa su interpretación personal de la canción. El material contenido en esta página es para exclusivo uso privado, por lo que se prohibe su reproducción o retransmisión, así como su uso para fines comerciales.
Más versiones de Afterlife, Avenged Sevenfold
Afterlife
tablatura
Afterlife (ver 2)
tablatura
Descubre más canciones de Avenged Sevenfold