Vientos Del Sur, Avalanch (tablatura)

Autor: jio_metal | 22978 visualizaciones



 Guitarra vientos del sur



Eb|----------------------------------------------------------
Bb|-8//10-10-------8--10--11--8h10p--------------------------
Gb|----------------------------------10--7-------9/10-9------
Db|----------------------------------------------------------
Ab|----------------------------------------------------------
Eb|----------------------------------------------------------



Eb|----------------------------------------------------------
Bb|------------------6---6/8----6----------------------------
Gb|-7-----9.---9--------------------9--10---9h10p7-----------
Db|----------------------------------------------------------
Ab|----------------------------------------------------------
Eb|----------------------------------------------------------



Eb|----------------------------------------------------------
Bb|-8//10-10----8--10--11--8h10---------------5/6--6/8-------
Gb|-------------------------------10--7----------------------
Db|----------------------------------------------------------
Ab|----------------------------------------------------------
Eb|----------------------------------------------------------



Eb|------------------5---5-----------------------------------
Bb|-6-----8.---8-------------6--8--5--6-5h6p5----------------
Gb|----------------------------------------------------------
Db|----------------------------------------------------------
Ab|----------------------------------------------------------
Eb|----------------------------------------------------------






ese intro esta un tin simple pero a mi me a salido vacano





Calificar esta versión:
Aviso: Este fichero es trabajo propio de su transcriptor y representa su interpretación personal de la canción. El material contenido en esta página es para exclusivo uso privado, por lo que se prohibe su reproducción o retransmisión, así como su uso para fines comerciales.
Más versiones de Vientos Del Sur, Avalanch
Vientos Del Sur
acordes
Vientos Del Sur
tablatura
Descubre más canciones de Avalanch