Cambaral, Avalanch (tablatura)

Autor: angeroXD | 30764 visualizaciones

CAMARAL

de un Pirata que se enamoró de una Princesa.

D Tuning

Gtr I
Intro= Am-Dm-Am-G-Am x2

Gtr II
Intro x2
d|-----------------8---7------------------------------------------
a|--8h10-10-------------------------------------------------------
f|---------9---7/9---9---9/10-9-7-9-9-10-9-9-7-5-5-5-7-7-5-4/5-2--
c|----------------------------------------------------------------
g|----------------------------------------------------------------
D|----------------------------------------------------------------

Am
De este lugar
Dm                 Am
cuentan leyendas e historias
            G          Am
y juran que así ocurrieron.

Am
Siglos atrás,
Dm                       Am
las tropas del rey en sangrienta batalla
     G                    E
a un joven de muerte hirieron.

F                 G
Y el rey con crueldad
            F
así le encerró,
             G
su herida mortal
             C
no obtuvo perdón,
        B7*       Am
y en el suelo esperó
     G         E             Am
la muerte sin ver la luz del sol.

Am
Sin fuerzas ni voz
Dm                Am
vió a una bella mujer
                G           Am
que con pena llegó hasta su celda.

Am
La muerte burló,
Dm                 Am
su corazón ahora ciego de amor
     G                  E
comenzó a latir con más fuerza.

F              G
Ella hija del rey,
                 F
él un simple ladrón.
                  G
El destino, tan cruel,
                C
les robó el corazón,
     B7*      Am
en aquella prisión
   G        E             Am
y lejos de ver la luz del sol.

F   G    Dm                   C
Déjame morir en tus brazos y así
       B7*      Am      G        F
un instante tal vez podré ser feliz.
     G      Dm             C
Esta vez la vida se ríe de mí
        B7*       Am          G       F
y ahora toca a su fin aunque quiera vivir.

       Dm
Quiero ver
   C           Bb
tu rostro otra vez.
    Dm
Y saber
      C         Bb
que siempre estaré junto a ti
       A
aunque vaya a morir.

F                  G
Dicen que ella escapó
               F
con su joven ladrón,
                  G
pero el rey les halló,
                C            B7*      Am
y con furia y dolor, ante un beso de amor,
      G            E           Am
a los dos con su espada atravesó.

Solo
Gtr I= Am-Dm-Am-G-Am x2

Gtr II
d|-------12-15-12~~
a|-10-13-----------
f|-----------------
c|-----------------
g|-----------------
D|-----------------

d|--12h13-12-------------12-----------------------------------------------
a|-----------15-15-13-12----15-13-13-12-10-10/13-13-13-13-12-12h13h12-10~-
f|------------------------------------------------------------------------
c|------------------------------------------------------------------------
g|------------------------------------------------------------------------
D|------------------------------------------------------------------------

d|--------12-17-12~~
a|--10-13-----------
f|------------------
c|------------------
g|------------------
D|------------------

d|--7/10-8-7-7------8-7---------------------8---------
a|-------------10-8-----10-10-8-6-6/8-8-8-8---8-8/10~-
f|----------------------------------------------------
c|----------------------------------------------------
g|----------------------------------------------------
D|----------------------------------------------------

F       G
Cuentan que
       Dm                    C
en las noches de invierno se ve
  B7*      Am        G           F
nacer una flor donde no llega el sol.

     G
Por amor
    Dm             C
sus almas unidas están
       B7*   Am       G        F
y se pueden amar para la eternidad.

      Dm
Puede ver
   C           Bb
su rostro otra vez,
    Dm
y saber
      C         Bb
que siempre estará junto a él,
        A
junto a él...

Dm~~

   B7*
d|--0--
a|--1--
f|--0--
c|--0--
g|--2--
D|--0--

Colita, mi princesa azul, quiero ver tu rostro otra vez,
y saber que siempre estaré junto a ti, aunque vaya a morir.
Calificar esta versión:
Aviso: Este fichero es trabajo propio de su transcriptor y representa su interpretación personal de la canción. El material contenido en esta página es para exclusivo uso privado, por lo que se prohibe su reproducción o retransmisión, así como su uso para fines comerciales.
Más versiones de Cambaral, Avalanch
Cambaral
tablatura
Cambaral (ver 2)
tablatura
Descubre más canciones de Avalanch