Tres Notas, Au-d (tablatura) (ver 4)

Autor: erick163 | 37009 visualizaciones

Intro: (En piano con el patrón de arriba)

    Do   Do   Sol  Sol  Fa  LA  Do  Fa  Mi  ~
    Mi   Mi   Si   Si   La                  ~
    Sol  Sol  re   re   do                  ~ x6

En las dos últimas veces antes de entrar a la letra se toca estas notas en un Sintetizador

e || --------1------------|
B || --1--3-----1--3------|
G || -----------------2---|
D || ---------------------|
A || ---------------------|
G || ---------------------|

  Intro: (En guitarra)

e || --0--0--3--3-1------1-0--|--0--0--3--3-1------1-0---||
B || --1--1--0--0-1----1------|--1--1--0--0-1----1-------||
G || --0--0--0--0-2--2--------|--0--0--0--0-2--2---------||
D || --2--2--0--0-3-----------|--2--2--0--0-3------------||
A || --3--3--2--2-3-----------|--3--3--2--2-3------------||
E || --------3--3-1-----------|--------3--3-1------------||

Esto se repite por toda la canción con algunas ligeras variaciones que se pueden sacar a oído...

     C                    G
  A veces en mi cuarto estando solo,
    F
  quisiera, acabar con todo,
   C                       G
  siento que en esta vida no tengo chance,
       F
  que todo lo que hago es un percance,
           C             G
  y es precisamente en ese momento,
             F
  en el que de mi mala suerte yo me lamento,
          C              G
  en que tú te apareces con tus caricias,
      F
  me besas la espalda, me das una sonrisa,
      C              G
  me dices flaco, olvida el fracaso,
F
  a la envidia no le hagas caso,
       C                G
  por ser siempre así, siempre así,
F
  estas tres notas son para ti...


Intermedio...
      Do   Do   Sol  Sol  Fa  Re  Do  Si  Do  Re   Do   Do   Sol  Sol  Fa  Re  Do  Si
      Mi   Mi   Si   Si   La                       Mi   Mi   Si   Si   La
      Sol  Sol  re   re   do                       Sol  Sol  re   re   do


Esto se toca junto con la punteada de piano. Suena en Sintetizador junto con el piano
e || ---------------------1~------------------------------------------------------------|
B || --1---1----3----3------------------------------1---1----3----3---------------------|
G || ------------------------------------------------------------------2~---------------|
D || -----------------------------------------------------------------------------------|
A || -----------------------------------------------------------------------------------|
G || -----------------------------------------------------------------------------------|


     C                       G
  Recuerdo aquel día en que te conocí,
F
  muchos amores empiezan así,
    C                  G
  que feo, que creída, eso pensamos,
F
  quién diría que nos enamoramos
          C                  G
  y no fue el destino ni tampoco tus amigas,
F
  lo que nos unió de por vida
        C                   G
  fue el hablar claro como dos amigos,
         F
  sin dejar los defectos escondidos
          C             G
  sabes que pelada? me gusta hablar sucio,
   F
  tú dijiste, no me importa si me quieres mucho
       C                G
  por ser siempre así, siempre así,
F
  estas tres notas son para ti


Intermedio...

       tres notas        son para ti      tres notas

  Recuerdo toa esas cosas que juntos vivimos,
  juntos, aunque fuera chiro
  las veces que tú con tus loqueras,
  cogías mi gorra jugabas a la rapera
  los primeros besos, las primeras huidas,
  y las primeras ssss... caricias atrevidas
  y de aquella vez, que jugando en mi cama,
  fuiste mía un viernes de mañana
  desnuda, y con el corazón en la mano,
  me abrazaste, me besaste y me dijistes, te amo
  por ser siempre así, siempre así,
  estas tres notas son para ti...

Intermedio...

      tres notas      son para ti      tres notas

Hablado:
Sabes?, yo se que a veces quisieras coger y matarme, pero eso es a veces... ¿si?

e || -------------|-------------||
B || ----0-1-0-1--|--0-1-3-1-3--||
G || --2----------|-------------||
D || -------------|-------------||
A || -------------|-------------||
E || -------------|-------------|| x4 suena de fondo en sintetizador...

  Sabes?, yo se, no soy un galán,
  soy callejero, un chance patán
  pero te quiero, eso no lo niego,
  pero al ser dominado le tengo miedo
  dime necio, dime terco, dime infracto,
  dime todo eso pero, dímelo con tacto
  y si alguna ves te hice llorar,
  fueron palabras que no quise mencionar
  no soy muy cursi, eso tú lo sabes,
  pero en el mundo no hay quien más te ame
  por ser siempre así, siempre así,
  escucha, estas tres notas, son para ti

  Intermedio...

       tres notas        son para ti       solo tres notas

       y son para ti


Para la parte final..
En piano (Con el patrón de arriba)

    Do   Do   Sol  Sol  Fa  LA  Do  Fa  Mi  Re  Do~
    Mi   Mi   Si   Si   La
    Sol  Sol  re   re   do

En guitarra

e || --0--0--3--3-1------1-0-------||
B || --1--1--0--0-1----1-----3-1~--||
G || --0--0--0--0-2--2-------------||
D || --2--2--0--0-3----------------||
A || --3--3--2--2-3----------------||
E || --------3--3-1----------------||
Calificar esta versión:
Aviso: Este fichero es trabajo propio de su transcriptor y representa su interpretación personal de la canción. El material contenido en esta página es para exclusivo uso privado, por lo que se prohibe su reproducción o retransmisión, así como su uso para fines comerciales.
Más versiones de Tres Notas, Au-d
Tres Notas
acordes
Tres Notas (ver 2)
acordes
Tres Notas
tablatura
Tres Notas (ver 2)
tablatura
Tres Notas (ver 3)
tablatura
Tres Notas (ver 4)
tablatura
Descubre más canciones de Au-d