Arrancacorazones, Attaque 77 (bajo)

Autor: Anónimo | 61730 visualizaciones



Puente ("Y solo puedo decir....")
G-|-----------------------------------------|
D-|------------------------------------5----|
A-|---5-5-5-5--3-3-3-3--2-2-2-2----5-7---7--|
E-|-----------------------------------------|


Estribillo ("...Más, dame un poco más")

G-|-----------------------------------
D-|-----------------------------------
A-|-----------------------------------
E-|---3-3-3-3-3-3-3-3-0-0-0-0-0-0-0-0-

G-|-----------------------------------
D-|-----------------------------------
A-|---2-2-2-2-2-2-2-2-5-5-5-5-5-5-5-5-
E-|-----------------------------------

G-|---------------------------------------------|
D-|---------------------------------------------| x2
A-|-3-3-3-3-3-3-3-3-3-3-3-3-3/13-13-13-13-13----|
E-|---------------------------------------------|

G-|---------|
D-|---------|
A-|---3/5~--|
E-|---------|

Puente 2 ("Del que no puedo salir…")

G-|----------------------------------------------|
D-|----------------------------------------------|
A-|----5-5-5-5-7-7-7-7-9-9-9-9-12-12-12-12-------|
E-|----------------------------------------------|

Puente 3 x Solo


G-|-------------------------|
D-|-------------------------|
A-|---10----5-------7-------|
E-|--------8----5/8---------|


Solo

G-|-------------------------------------|
D-|----------2-3-2-----------5-7-5------| x2
A-|--3-3-3----------5-5-5---------------|
E-|-------------------------------------|



Orden:

Puente 1 x 1
Estribillo x 2
Puente 2 x 1
Estribillo x 2
Puente 3 x 1
Estribillo x 3





Calificar esta versión:
Aviso: Este fichero es trabajo propio de su transcriptor y representa su interpretación personal de la canción. El material contenido en esta página es para exclusivo uso privado, por lo que se prohibe su reproducción o retransmisión, así como su uso para fines comerciales.
Más versiones de Arrancacorazones, Attaque 77
Arrancacorazones
acordes
Arrancacorazones (ver 2)
acordes
Arrancacorazones (ver 3)
acordes
Arrancacorazones (ver 4)
acordes
Arrancacorazones (ver 5)
acordes
Arrancacorazones (ver 6)
acordes
Arrancacorazones (ver 7)
acordes
Arrancacorazones
tablatura
Arrancacorazones (ver 2)
tablatura
Arrancacorazones
bajo
Arrancacorazones
bateria
Arrancacorazones
armonica
Descubre más canciones de Attaque 77