Antihumano, Attaque 77 (tablatura)

Autor: Anónimo | 26376 visualizaciones



ACA ESTA EL SOLO:

e------------------------------------------
B------------------------------------------
G----------(7)---------7--5-7-- 5-7vv-5-7-5
D--10-10-10-----9h8h(7)--7-----7-----7-----
A--10-10-10--------------------------------
E--8--8--8---------------------------------

e------------------------------------------------------
B------------------------------------------------------
G------------------------------------------------------
D--7---5-7---5-7vvv---5-(7)vv-9-9-9-9-7-7-7------------
A----7-----7--------7-----------------------7h9h7h9h7h9
E------------------------------------------------------

ESTO ES TODO CHE...GRACIASSSS

SALUDOS A TODOS LOS QUE ME CONOCEN Y AGUANTE OMEGA!!!

Fuente original: LaCuerda
Colaborador original: Federico Borrego [[email protected]]





Calificar esta versión:
Aviso: Este fichero es trabajo propio de su transcriptor y representa su interpretación personal de la canción. El material contenido en esta página es para exclusivo uso privado, por lo que se prohibe su reproducción o retransmisión, así como su uso para fines comerciales.
Más versiones de Antihumano, Attaque 77
Antihumano
acordes
Antihumano
tablatura
Descubre más canciones de Attaque 77