Angeles Caidos, Attaque 77 (acordes)

Autor: Anónimo | 19403 visualizaciones

abcsosdsosefsosgsosgsosm
 Ángeles caídos

[intro] G#m  B E  F# [x2] + punteo [lo hace solo la primera vez]

[punteo del intro]
g|--6b7b6-4----------
D|----------6--------

[solo]
   G#m               E         F#                D#
e|------------------------------------------------------------------------------------
B|-9-9-9-9-8/9-9-9-9-8/9-9-9-9-8/9-9-9-9-8/9-9-9-8/9-9-9-9-9/11b-11b-11b-11b----------
G|------------------------------------------------------------------------------------
D|------------------------------------------------------------------------------------
A|------------------------------------------------------------------------------------
E|------------------------------------------------------------------------------------

   G#m               E                    F#       D#
e|------------------------------------------------------------------------------------
B|------------------------------------------------------------------------------------
G|-7--5--4--5----4-5-7/9---7---5---4---5--4--------9/11b-11b-11b-11b-11b-11b-11b-11b--
D|------------------------------------------------------------------------------------
A|------------------------------------------------------------------------------------
E|------------------------------------------------------------------------------------


[Letra]

  G#m
Algo oculto estalló
  F#
adentro de tu corazón
   E                   C#
tenías el mundo a tus pies
       G#m  B   G#m B G# B C#
..y ahora qué?

C#
Quieres terminar con todo
A
pero hay algo que te condena
       B                  D#
la tentación está en tu mente


 G#m       E             F#           D#
La gloria y el poder se transformó en tu prisión
   G#m        E      F#            D#
Ángeles, ángeles, ángeles, ángeles caídos

[intro]

  G#m
A quién estás ayudando
  F#
a quién estás encubriendo
   E                   C#
cuántas vidas se perdieron
      G#m  B   G#m B G# B C#
yo!, yo no lo se...

C#
Quieres terminar con todo
A
pero hay algo que te condena
       B                  D#
la corrupción esta en tu mente.


 G#m       E             F#           D#
La gloria y el poder se transformó en tu prisión
   G#m        E      F#            D#
Ángeles, ángeles, ángeles, ángeles caídos

[solo]

 G#m
A quién estás ayudando
  F#
a quién estas encubriendo
   E                   C#
cuántas vidas se perdieron
       G#m  B   G#m B G# B C#
yo no lo se...

C#
Quieres terminar con todo
A
pero hay algo que te condena
       B                  D#
la corrupción esta en tu mente.


G#m       E             F#           D#
La gloria y el poder se transformó en tu prisión
   G#m        E      F#            D#
Ángeles, ángeles, ángeles, ángeles caídos


[termina como intro]

Dedicado a Jirafa aguante loco la paz que transmite Ciro ..

Fuente original: LaCuerda
Colaborador original: Deivid Toscano [davidtoscano41@hotmail.com]
Calificar esta versión:
Aviso: Este fichero es trabajo propio de su transcriptor y representa su interpretación personal de la canción. El material contenido en esta página es para exclusivo uso privado, por lo que se prohibe su reproducción o retransmisión, así como su uso para fines comerciales.
Más versiones de Angeles Caidos, Attaque 77
Angeles Caidos
acordes
Angeles Caidos (ver 2)
acordes
Angeles Caidos (ver 3)
acordes
Angeles Caidos
tablatura
Descubre más canciones de Attaque 77